Nirvana - Plateau Chords & Tabs

 

Plateau Chords & Tabs

Nirvana Chords & Tabs

Version: 3 Type: Tab 0 ratings
1 star 2 stars 3 stars 4 stars 5 stars
comments

Plateau Tab

Nirvana plateau

unplugged 1994

a Meat puppets cover

play this 3 times...
e---2--5--2--5--2--5--0
B----------------------
G----------------------
D----------------------
A----------------------
E----------------------

...then this
e---2--5--2--0--2--0---
B---------------------2
G----------------------
D----------------------
A----------------------
E----------------------
[ Tab from: http://www.guitartabs.cc/tabs/n/nirvana/plateau_tab_ver_3.html ]
e---2--5--2--5--2--5--0
B----------------------
G----------------------
D----------------------
A----------------------
E----------------------
bla bla...

...then this
e---2--5--2--0--2--0---
B---------------------2
G----------------------
D----------------------
A----------------------
E----------------------
bla bla...


Hope you enjoy it!!!!

tabbed by: 
Simon Lindgren, Älvsbyn
Comments