Nirvana - Pennyroyal Tea Chords & Tabs

 

Pennyroyal Tea Chords & Tabs

Nirvana Chords & Tabs

Version: 4 Type: Bass Tab 0 ratings
1 star 2 stars 3 stars 4 stars 5 stars
comments

Pennyroyal Tea Bass Tab

Nirvana - Pennyroyal Tea (Cobain, Novoselic, Grohl); Album: In Utero

Verse 1: ... "I'm on my time..." (listen to the song for timing)
1 * --------------------------------------
2 * --------------------------------------
3 * --------------------------------------
4 * --3------3------2-3-0----0-------3----

Chorus: x4 ... "Sit and drink..."
1 * -------------------------------------------------------------------
2 * -------------------------------------------------------------------
3 * --3-3-3-3-3-2-3-4-4h5-5-5-5/8-8-0-1-1-1-1-1-1-1-1-1-0-1-0-1-0-1-0--
4 * -------------------------------------------------------------------

Verse 2: ... "Give me a Leonard..."
1 * -------------------------------------------------------------------
2 * -------------------------------------------------------------------
3 * -------------------------------------------------------------------
4 * --5--5-5--5-5-3-5--5-5--7b-7b-0-3--3-3--3-3-3-3\1p0-0-0-0--2-3-0--

1 * -------------------------------------------------------------------
2 * -------------------------------------------------------------------
3 * -------------------------------------------------------------------
4 * --5--5-5--5-5-3-5--5-5--9b-9b-0-3--3-3--3-3-3-3-3-3-3-3-3-3-3-----
[ Tab from: http://www.guitartabs.cc/tabs/n/nirvana/pennyroyal_tea_btab_ver_4.html ]
Chorus 2: x4 ... "I'm so tired..."
1 * -------------------------------------------------------------------
2 * -------------------------------------------------------------------
3 * --3-3-3-3-3-2-3-4-4h5-5-5-5/8-8-0-1-1-1-1-1-1-1-1-1-0-1-0-1-0-1-0--
4 * -------------------------------------------------------------------

Solo:
1 * -------------------------------------------------------------------
2 * -------------------------------------------------------------------
3 * -------------------------------------------------------------------
4 * --5--5-5--5-5-3-5--5-5--7b-7b-0-3--3-3--3-3-3-3--3-3--3-3-3-------

1 * -------------------------------------------------------------------
2 * -------------------------------------------------------------------
3 * -------------------------------------------------------------------
4 * --5--5-5--5-5-3-5--5-5--9b-9b-0-3--3-3--3-3-3-3-3-3-3-3-3-3-3-----
x2
1 * -------------------------------------------------------------------
2 * -------------------------------------------------------------------
3 * --3-3-3-3-3-2-3-4-4h5-5-5-5/8-8-0-1-1-1-1-1-1-1-1-1-0-1-0-1-0-1-0--
4 * -------------------------------------------------------------------

Verse 3: ... "I'm on warm milk..."
1 * --------------------------------------
2 * --------------------------------------
3 * --------------------------------------
4 * --3------3------2-3-0----0-------3----

Chorus: x4 ... "Sit and drink..."
1 * -------------------------------------------------------------------
2 * -------------------------------------------------------------------
3 * --3-3-3-3-3-2-3-4-4h5-5-5-5/8-8-0-1-1-1-1-1-1-1-1-1-0-1-0-1-0-1-0--
4 * -------------------------------------------------------------------

Outro: x7
1 * ----------------|-----------
2 * ----------------|-----------
3 * ----------------|-----------
4 * --5--5--5-5-3---|--5~-------
Comments