Nirvana - Pen Cap Chew Chords & Tabs

 

Pen Cap Chew Chords & Tabs

Nirvana Chords & Tabs

Version: 5 Type: Tab 0 ratings
1 star 2 stars 3 stars 4 stars 5 stars
comments

Pen Cap Chew Tab

-------------------------------------------------------------------------------
			     Pen Cap Chew - NIRVANA
-------------------------------------------------------------------------------
Tabbed by: EdarotagV335
Email: EdarotagV335@yahoo.com

Tuning: down 1 step

Legend: )and b = bend up
             ( = bend back down
             * = harmonics
             ~ = hold note
             / = slide up
          p.m. = palm mute

TIP: when bending the 3s upwards, bend it slowly until you can hear full bend

intro - start w/some harmonics then straight into this:
e|----------------------------------------------------|
B|----------------------------------------------------|
G|----------------------------------------------------|
D|------------------------------------------)~~~~~~~(-|
A|--2222----)---2222--)----2222--)----2222-5----------|
E|--0000---3----0000-3-----0000-3-----0000------------|
  |____p.m.____|                                                             
[ Tab from: http://www.guitartabs.cc/tabs/n/nirvana/pen_cap_chew_tab_ver_5.html ]
e|------------------------------------------------|
B|------------------------------------------------|
G|------------------------------------------------|
D|-----------------)~~~(--------------------------|
A|-2222--)---2222-5-----5/3/-0--2222--)--2222-----|
E|-0000-3----0000---------------0000-3---0000-3---|
                                        |_p.m._|

first half of verse(ooh lies a gun) - palm mute all the way through:
e|------------------------|
B|------------------------|
G|------------------------|
D|------------------------|
A|-2222--)----------------|
E|-0000-3-----------------|

second half of verse(you get...) - start with feedback/harmonic to begin:
e|---------|--------------|
B|---------|--------------|
G|---------|--------------|
D|------0--|------0-0--55-|
A|-2222-0--|-2222-0-0--55-|
E|-0000-3b-|-0000-3b~~~33-| - prechorus(you're lonely)
 (just repeat)

chorus - have at it!
e|---------------------------------------------------|
B|---------------------------------------------------|
G|------------------------------777/101010-0---------|
D|---99---77---44-77-------5-5--777/101010-0---------|
A|---99---77---44-77---2-225-5--555/-88888-0---------|
E|---770--550--22/550--0-003-3-----------------------|

postchorus - slide some harmonics in there:
e|------------------------------|
B|-------------*----------------|
G|-------------*---777/101010-0-|
D|---9--9-99--*----777/101010-0-|
A|---9--9-99-*-----555/-8-8-8-0-|
E|---7--7-77--------------------|

repeat a combination of the verses for the outro

alright cool, hope you enjoy cuz this song rocks.
questins/comments/suggestions jus' email me. PIXIES AT STREET-SCENE 05!
Comments