Nirvana - Pen Cap Chew Chords & Tabs

 

Pen Cap Chew Chords & Tabs

Nirvana Chords & Tabs

Version: 4 Type: Tab 0 ratings
1 star 2 stars 3 stars 4 stars 5 stars
comments

Pen Cap Chew Tab

   
Band: Nirvana
Song: Pen Cap Chew
Tabbed by: sunburned.freezerburn@gmail.com
Tuning: standard
Notation:
 . = palm mute
 / = slide up
 ~ = let it ring
 b = bend


  Intro
e|------------|------------|
B|------------|------------|
G|------------|---------7b-|
D|-2-2-2-2-5~-|-2-2-2-2-7b-|
A|-2-2-2-2-5~-|-2-2-2-2-5b-|
E|-0-0-0-0-3~-|-0-0-0-0----|
   . . . .      . . . .
[ Tab from: http://www.guitartabs.cc/tabs/n/nirvana/pen_cap_chew_tab_ver_4.html ]
  
  Verse
e|------------|
B|------------|
G|------------|
D|-2-2-2-2-5~-|
A|-2-2-2-2-5~-|
E|-0-0-0-0-3~-|
   . . . . .


  Chorus
e|---------------------------------------------|
B|---------------------------------------------|
G|-4-4-2-2-----2-2---------7-7-7-7/10-10-10-10-|
D|-4-4-2-2-4-4-2-2-2-2-5-5-5-5-5-5/10-10-10-10-|
A|-2-2-0-0-2-2-0-0-2-2-5-5-5-5-5-5/-8--8--8--8-|
E|---------2-2-----0-0-3-3---------------------|
Comments