Nirvana - Pen Cap Chew Chords & Tabs

 

Pen Cap Chew Chords & Tabs

Nirvana Chords & Tabs

Version: 1 Type: Bass Tab 0 ratings
1 star 2 stars 3 stars 4 stars 5 stars
comments

Pen Cap Chew Bass Tab

   
SONG: Pen Cap Chew
ARTIST: Nirvana
ALBUM: (unreleased)
AUTHOR: Kurt Cobain
PUBLISHER: (unpublished)
TUNING: Eb Ab Db Gb


Once you master the progression of the interlude, Pen Cap Chew
is easy to play.  For those of you who don’t know, Pen Cap Chew
is a Bleach outtake; Pen Cap Chew, If You Must, and an alternate
version of Spank Thru were the only three songs not released out
of the ten recorded with drummer Dale Crover.  The other seven
were systematically released on either Bleach or Incesticide.
All guitars are tuned half a step down.

[ Tab from: http://www.guitartabs.cc/tabs/n/nirvana/pen_cap_chew_btab.html ]
Verse/Chorus:
G|-----------------------------------|
D|-----------------------------------|
A|-----------------------------------|
E|--1h1h1h1--------------------------|


Interlude:
G|-----------------------------------|
D|--------------------------1-1-4-4--|
A|--3-3-1-1-----1-1------------------|
E|----------3-3-----1-1-4-4----------|

G|---------------------------|
D|----------1h1h1h1h4h4h4h4--|
A|--3-3-3-3------------------|
E|---------------------------|


     Transcribed by: Jesse Miller  millerbull@sprynet.com
     This is my own work.  Rip me off and you will die.


Comments