Nirvana - Paulie Chords & Tabs

 

Paulie Chords & Tabs

Nirvana Chords & Tabs

Version: 1 Type: Tab 1 rating
1 star 2 stars 3 stars 4 stars 5 stars
comments

Paulie Tab

Song:    Paulie
Artist:  Nirvana
Albulm:  Nevermind


Tabed by Charlotte Dunn
All the other tabs that I saw were shity as hell. I stole the first part which was really obvious, and I added the chorus. 
[ Tab from: http://www.guitartabs.cc/tabs/n/nirvana/paulie_tab.html ]
1-----------------------------------------------------------------------------------------------------------|
2-----------------------------------------------------------------------------------------------------------|
3---------------------------5-5------3----3-3-3-------------------------------------------------------------|
4--------2------5-5-5-------7-7------5----5-5-5-------------------------------------------------------------|
5--------2------5-5-5-------7-7------5----5-5-5-------------------------------------------------------------|
6--------0------3-3-3---------------------------------------------------------------------------------------|

Chorus
					
1-----------------------------------------------------------------------------------------------------------|
2-----------------------------------------------------------------------------------------------------------|
3------7-7-7--------5-5-5---------------3-3-3---------------------------------------------------------------|
4------7-7-7--------5-5-5---5-5-5-------3-3-3---------------------------------------------------------------|
5------5-5-5--------3-3-3---5-5-5-------1-1-1---------------------------------------------------------------|
6---------------------------3-3-3---------------------------------------------------------------------------|	
Comments