Nirvana - Paper Cuts Chords & Tabs

 

Paper Cuts Chords & Tabs

Nirvana Chords & Tabs

Version: 2 Type: Bass Tab 0 ratings
1 star 2 stars 3 stars 4 stars 5 stars
comments

Paper Cuts Bass Tab

Song: Paper Cuts
Artist: Nirvana
Album: Bleach
Tabbed by Freak
"Tune E string down 1 step to D"
P.M=palm mute

intro & verse
G|----------------------------------|---------------
D|----------------------------------|---------------
A|----------------------------------|---------------
D|-2-2-2-2-2-2---2222---------------|---------------
P.M_________________________________________________
[ Tab from: http://www.guitartabs.cc/tabs/n/nirvana/paper_cuts_btab_ver_2.html ]
bridge
G|----------------------------------|----------------
D|----------------------------------|----------------
A|----------------------------------|----------------
D|-0-1--0-11--0-1--0-11-0-1-0-11----|----------------

chorus
G|----------------------------------|-----------------
D|----------------------------------|-----------------
A|----------------------------------|-----------------
D|-22-33-44-55--8-77----------------|-----------------

post chorus
G|----------------------------------|-----------------|
D|----------------------------------|-----------------|
A|----------------------------------|-----------------|
D|-5-44--8-77--5-44--8-77--5-44-----|-33-2--333--2--3-|

Any questions/corrections/suggestions? Mail me.
freakinbass@galoforte.com.br
Comments