Nirvana - Opinion (radio Broadcast In 1990) Chords & Tabs

 

Opinion (radio Broadcast In 1990) Chords & Tabs

Nirvana Chords & Tabs

Version: 1 Type: Tab 1 rating
1 star 2 stars 3 stars 4 stars 5 stars
comments

Opinion (radio Broadcast In 1990) Tab

   
opinion (radio broadcast in 1990)
this song is all acoustic
Tabbed by: MICHAEL FERNANDEZ

tuning: standard

intro
B5     G5      D5      F#5
--------------I----------------I
--------------I----------------I
4--4-0------0-I-7--7-0-------0-I
4--4-0-5--5-0-I-7--7-0-4-4-4-0-I
2--2-0-5--5-0-I-5--5-0-4-4-4-0-I
-----0-3--3-0-I------0-2-2-2-0-I

[ Tab from: http://www.guitartabs.cc/tabs/n/nirvana/opinion_radio_broadcast_in_1990_tab.html ]
verse
B5     G5      D5      F#5
--------------I----------------I
--------------I----------------I
4--4-0------0-I-7--7-0-------0-I
4--4-0-5--5-0-I-7--7-0-4-4-4-0-I
2--2-0-5--5-0-I-5--5-0-4-4-4-0-I
-----0-3--3-0-I------0-2-2-2-0-I


chorus
B5     G5      D5      F#5
--------------I----------------I
--------------I----------------I
4--4-0------0-I-7--7-0-------0-I
4--4-0-5--5-0-I-7--7-0-4-4-4-0-I
2--2-0-5--5-0-I-5--5-0-4-4-4-0-I
-----0-3--3-0-I------0-2-2-2-0-I

basicly the whole song is just B5 G5 D5 F#5
Comments