Nirvana - Opinion Chords & Tabs

 

Opinion Chords & Tabs

Nirvana Chords & Tabs

Version: 3 Type: Chords 0 ratings
1 star 2 stars 3 stars 4 stars 5 stars
comments

Opinion Chords

Song: Opinion
Band: Nirvana
Tabbed By: Phil Twigg (Tuigguloso@aol.com)

This is a rare song from a Radio show in 1990.  It is in my opinion one of 
Nirvana's greatest songs and it is sad that it did not make it on to any of their
albums although it is on a number of bootlegs.    

Standard Tuning:

Intro:
[ Tab from: http://www.guitartabs.cc/tabs/n/nirvana/opinion_crd_ver_3.html ]
e|----------------------------------------------------------------------------------
B|----4-----4-4---4-4---------------------------------------------------------------
G|----4-----4-4---4-4---------------------------------------------------------------
D|----4-----4-4---4-4-5-5-5-5-5-----------------------------------------------------
A|----2-----2-2---2-2-5-5-5-5-5-----------------------------------------------------
E|--------------------3-3-3-3-3-----------------------------------------------------

The Whole Song:

"Oh, this songs called Opinion"

e|----------------------------------------------------------------------------------
B|---4-4-----------7-7--------------------------------------------------------------
G|---4-4-----------7-7--------------------------------------------------------------
D|---4-4-5-5-5-5-5-7-7-4-4-4-4-4----------------------------------------------------
A|---2-2-5-5-5-5-5-5-5-4-4-4-4-4----------------------------------------------------
E|-------3-3-3-3-3-----2-2-2-2-2----------------------------------------------------


Well thats the whole song, just play those 4 chords the whole way through and 
experiment with how hard you play it.
Any comments or corrections feel free to email me.
Comments