Nirvana - On A Plain Chords & Tabs

 

On A Plain Chords & Tabs

Nirvana Chords & Tabs

Version: 8 Type: Tab 0 ratings
1 star 2 stars 3 stars 4 stars 5 stars
comments

On A Plain Tab

   
On a plain
Kurt Cobain
Drop Db (Db Ab Db Gb Bb Eb) 

Verse:
E|------------------x2
B|-7-77-------------
G|-7-77-------------
D|-7-775-553-332320-
A|-5-555-553-332320-
D|-----5-553-332320-

E|-----------------------------------x1
B|-5-554-44----7-77------------------
G|-5-554-44----7-77------------------
D|-5-554-447-777-775-553-332-22-2320-
A|-3-332-227-775-555-553-332-22-2320-
D|---------7-77----5-553-332-22-2320-
Repeat all of this twice

[ Tab from: http://www.guitartabs.cc/tabs/n/nirvana/on_a_plain_tab_ver_8.html ]
Chorus:           I'm  on  a plain
E|-----------------------------------------------------
B|-7-777-77/1010101010101010-7-777-77/1010101010101010-
G|-7-777-77/1010101010101010-7-777-77/1010101010101010-
D|-7-777-77/1010101010101010-7-777-77/1010101010101010-
A|-5-555-55/8-8-8-8-8-8-8-8--5-555-55/8-8-8-8-8-8-8-8--
D|-----5-55----------------------5-55------------------


Interlude:
   Somewhere i have heard this before
E|----------------------------------------------
B|----------------------------------------------
G|----------------------------------------------
D|-3---------2-----------------7------3333-3333-
A|-3---------2-----------------7------3333-3333-
D|-3---------2-----------------7------3333-3333-
Comments