Nirvana - On A Plain Chords & Tabs

 

On A Plain Chords & Tabs

Nirvana Chords & Tabs

Version: 7 Type: Tab 0 ratings
1 star 2 stars 3 stars 4 stars 5 stars
comments

On A Plain Tab

   
-------------------------------------------------------------------------------
			     On A Plain - Nirvana
-------------------------------------------------------------------------------

Tabbed by:Josh Shiben
Email:Shiben5@AOL.com

Tuning:Drop-D

This songs pretty easy to play, and I'm confident that most of this is right.

Verse
e|---------------------------------------------------------------------------|
B|---------------------------------------------------------------------------|
G|---------------------------------------------------------------------------|
D|-7-7-----------------------------------------------------------------------|
A|-5-5--5-5--3-3-------------2-3-2-0-----------------------------------------|
E|------5-5--3-3-------------2-3-2-0-----------------------------------------|
   Lets start this off      Without any words
[ Tab from: http://www.guitartabs.cc/tabs/n/nirvana/on_a_plain_tab_ver_7.html ]
e|---------------------------------------------------------------------------|
B|---------------------------------------------------------------------------|
G|---------------------------------------------------------------------------|
D|-7-7--5-5--4-4--2-2--------------------------------------------------------|
A|-5-5--3-3--2-2--0-0--------------------------------------------------------|
E|---------------------------------------------------------------------------|
  I love myself

Chorus
e|---------------------------------------------------------------------------|
B|---------------------------------------------------------------------------|
G|---------------------------------------------------------------------------|
D|-7-7-------3-3-3-3-3-3-3-3-------------------------------------------------|
A|-5-5--5-5--3-3-3-3-3-3-3-3-------------------------------------------------|
E|-0-0--5-5--3-3-3-3-3-3-3-3-------------------------------------------------|
                 I'm on a plain

Bridge
e|---------------------------------------------------------------------------|
B|---------------------------------------------------------------------------|
G|---------------------------------------------------------------------------|
D|---------------------------------------------------------------------------|
A|-3----2----7----5-5-5-5-5-5-5-5--------------------------------------------|
E|-3----2----7----5-5-5-5-5-5-5-5--------------------------------------------|
      Somewhere I have heard...
Comments