Nirvana - On A Plain Chords & Tabs

 

On A Plain Chords & Tabs

Nirvana Chords & Tabs

Version: 5 Type: Tab 1 rating
1 star 2 stars 3 stars 4 stars 5 stars
comments

On A Plain Tab

   
Artist: Nirvana
Song: On A Plain
Album: Nevermind

(Drop D)

Verse:

e---------------------------|
B---------------------------|
G-7-7-----------------------|
D-7-7--5-5--3-3--2-0-2-0----|
A-5-5--5-5--3-3--2-0-2-0----|
D------5-5--3-3--2-0-2-0----|

Pre-Chorus:

e---------------------------|
B---------------------------|
G-7-7-----------------------|
D-7-7--10-10--9-9--7-7-7-7--|
A-5-5--10-10--9-9--7-7-7-7--|
D------10-10--9-9--7-7-7-7--|

Chorus:
[ Tab from: http://www.guitartabs.cc/tabs/n/nirvana/on_a_plain_tab_ver_5.html ]
e----------------------------------|
B----------------------------------|
G-7-7-7----------------------------|
D-7-7-7--5-5-5-5--8-8-8-8-8-8-8-8--|
A-5-5-5--5-5-5-5--8-8-8-8-8-8-8-8--|
E--------5-5-5-5--8-8-8-8-8-8-8-8--|

Bridge:

e---------------------------------------------|
B---------------------------------------------|
G---------------------------------------------|
D-3-3-3-3-3--2-2-2-2-2--7-7-7-7-7--5-5-5-5-5--|
A-3-3-3-3-3--2-2-2-2-2--7-7-7-7-7--5-5-5-5-5--|
E-3-3-3-3-3--2-2-2-2-2--7-7-7-7-7--5-5-5-5-5--|

That's all to it.

Comments