Nirvana - On A Plain Chords & Tabs

 

On A Plain Chords & Tabs

Nirvana Chords & Tabs

Version: 1 Type: Tab 0 ratings
1 star 2 stars 3 stars 4 stars 5 stars
comments

On A Plain Tab

On A Plain
Tune Down 1/2 a step and Drop D 
verse
e----------------------------------------------------------------------------
b--7---7--7------------------------------------------------------------------
g--7---7--7---7--7--7--------------------------------------------------------                                                     
d--7---7--7---7--7--7--------------------------------------------------------
a--5---5--5---5--5--5--0--3---3--0--2--3--2--0-------------------------------
e-------------5--5--5--0--3---3--0--2--3--2--0-------------------------------

e----------------------------------------------------------------------------
b--7---7--7------------------------------------------------------------------
g--7---7--7---7--7--7--------------------------------------------------------                                                     
d--7---7--7---7--7--7--------------------------------------------------------
a--5---5--5---5--5--5--0--3---3--0--2--3--2--0-------------------------------
e-------------5--5--5--0--3---3--0--2--3--2--0------------------------------- 

e----------------------------------------------------------------------------
b--7---7--7--5--5--5--5--4---4--4--2--2--2-----------------------------------
g--7---7--7--5--5--5--5--4---4--4--2--2--2-----------------------------------
d--7---7--7--5--5--5--5--4---4--4--2--2--2--0--------------------------------
a--5---5--5--3--3--3--3--2---2--2--0--0--0--0--------------------------------
e----------------------------------------------------------------------------
[ Tab from: http://www.guitartabs.cc/tabs/n/nirvana/on_a_plain_tab.html ]
e----------------------------------------------------------------------------
b--7---7--7------------------------------------------------------------------
g--7---7--7---7--7--7--------------------------------------------------------                                                     
d--7---7--7---7--7--7--------------------------------------------------------
a--5---5--5---5--5--5--0--3---3--0--2--3--2--0-------------------------------
e-------------5--5--5--0--3---3--0--2--3--2--0-------------------------------
 play all of that twice, then the chorus
e----------------------------------------------------------------------------
b--7---7--7------------------------------------------------------------------  
g--7---7--7--7--7--7--7-10-10-10-10-10-10------------------------------------
d--7---7--7--7--7--7--7-10-10-10-10-10-10--0---------------------------------
a--5---5--5--5--5--5--5--8--8--8--8--8--8--0---------------------------------
e------------5--5--5--5--8--8--8--8--8--8--0---------------------------------
play that 4 times. 
bridge
e----------------------------------------------------------------------------
b----------------------------------------------------------------------------
g-------------------------------------------2---2-----0----------------------
d--------3-----3---------2-----2---------2---------2-----------5---5---------
a-----3------3----3----2----2-----2---0---------------------5------5---------
e--3-----------------2------------------------------------5-----------0------

e----------------------------------------------------------------------------
b----------------------------------------------------------------------------
g-------------------------------------------2---2-----0----------------------
d--------3-----3---------2-----2---------2---------2-----------5---5---------
a-----3------3----3----2----2-----2---0---------------------5------5---------
e--3-----------------2------------------------------------5-----------0------

e----------------------------------------------------------------------------
b----------------------------------------------2-----------------------------
g----------------------------------------------2------2--0-------------------
d-------------------------------2-----2-----2------2--2-----------5---5--5---
a-----3--3---3--3------------2-----2-----0-------------------5----5---5--5---
e--3---------------0---2--2--------------------------------5---5-----------0-

e----------------------------------------------------------------------------
b--------------------------------------------2-------------------------------
g--------------------------------------------2-----2--0----------------------
d--------3----3------------2-----2--------2-----2--2-----5-5-5-5-5-5-5-5-5---
a-----3-----3----3------2-----2-----2--0-----------------5-5-5-5-5-5-5-5-5---
e--3-----------------2-----------------------------------5-5-5-5-5-5-5-5-5---
 then play the verse, and after the chorus play,
e----------------------------------------------------------------------------
b--7---7--7--7--7--7--7------------------------------------------------------
g--7---7--7--7--7--7--7------------------------------------------------------
d--7---7--7--7--7--7--7-10-10-10-10-10-10-0----------------------------------              
a--5---5--5--5--5--5--5-10-10-10-10-10-10-0----------------------------------
e------------5--5--5--5--8--8--8--8--8--8-0----------------------------------
 play that 2 times, then end with,
e----------------------------------------------------------------------------
b----------------------------------------------------------------------------
g--7-------------------------------------------------------------------------
d--7-------------------------------------------------------------------------
a--5-------------------------------------------------------------------------
e--0------------------------------------------------------------------------
Comments