Nirvana - On A Plain Chords & Tabs

 

On A Plain Chords & Tabs

Nirvana Chords & Tabs

Version: 1 Type: Bass Tab 0 ratings
1 star 2 stars 3 stars 4 stars 5 stars
comments

On A Plain Bass Tab

   
Nirvana - On A Plain
Nevermind

Tabbed by Robert Hull 
Member of the Bass Tab Archive Tabbing Army
http://www.basstabarchive.com/

Drop D tuning

The other version of this song I've seen is very confusing and has mistakes, 
so I've tabbed out how I play it.
I have a feeling it should be slightly more complicated than this - any 
suggestions or
corrections then please email me.


			Verse
G|---------------------------------------------------------------------|
D|-----------------------------------------------5-5--3--3-3-2--3-2--|
A|--5--5-5---------------------------5--5-5--------------------------|
D|----------5--5-5--3--3-3-2--3-2-----------5-----------------------|


G|-------------------------------------------------------------------------|
D|-------------------------------------------------------------------------|
A|--5--5-5--3--3-3--2--2-2--0--0-0---5--5-5---------------------------|
D|-----------------------------------------------5--5-5--3--3-3-2--3-2--|

[ Tab from: http://www.guitartabs.cc/tabs/n/nirvana/on_a_plain_btab.html ]
			Chorus
G|----------------------------------------------------------------------------------|
D|----------------------------------------------------------------------------------|
A|--5--5-5--------------------------------5--5-5----------------------------------|
D|----------5--5-5--3--3-3--3--3-3-3-3----------5--5-5--8--8-8--8--8-8-8-8--|


		Section A
G|-------------------------------------------------------|
D|-------------------------------------------------------|
A|------------------------0--0-0-0----------------------|
D|--3--3-3-3--2--2-2-2------------5--5--5-5-5-5-5-5--|


		Section B
G|-------------------------------------------------------|
D|-------------------------------------------------------|
A|------------------------0--0-0-0----------------------|
D|--3--3-3-3--2--2-2-2------------5--5--5--5-3-2-0---|
				      ^^^^^^^
				      Play fast

Play this as:	Verse x 2
		Chorus x 2
		Verse x 2
		Chorus x 2
		Section A x 3
		Section B x 1
		Verse x 2
		Chorus (play till music fades)


Comments