Nirvana - Old Age Chords & Tabs

 

Old Age Chords & Tabs

Nirvana Chords & Tabs

Version: 2 Type: Tab 0 ratings
1 star 2 stars 3 stars 4 stars 5 stars
comments

Old Age Tab

   
Nirvana - Old Age
Album - With the Lights Out (boxset)
Tabbed by Tim g

Intro
    Em  C
|---0---0--|----|
|---0---1--|----|
|---0---0--|-x4-|
|---2---2--|----|
|---2---3--|----|
|---0------|----|
[ Tab from: http://www.guitartabs.cc/tabs/n/nirvana/old_age_tab_ver_2.html ]
Verse
   Em   C           G   A   C
|---0---0--|----|---3---0---0--|
|---0---1--|----|---0---2---1--|
|---0---0--|-x2-|---0---2---0--|
|---2---2--|then|---0---2---2--|
|---2---3--|----|---2---0---3--|
|---0------|----|---3----------|

Chorus
   Em  C
|--0---0--|
|--0---1--|
|--0---0--|
|--2---2--|
|--2---3--|
|--0------|

Interlude
    B   C   D
|---2---0---2--|
|---4---1---3--|
|---4---0---2--|
|---4---2---0--|
|---2---3------|
|--------------|
Comments