Nirvana - Oh Me Chords & Tabs

 

Oh Me Chords & Tabs

Nirvana Chords & Tabs

Version: 1 Type: Bass Tab 0 ratings
1 star 2 stars 3 stars 4 stars 5 stars
comments

Oh Me Bass Tab

Nirvana - Oh, Me
MTV Unplugged In New York

Tabbed by Robert Hull
Member of the Bass Tab Archive Tabbing Army
http://www.basstabarchive.com/

Tune 1/2 step down

~ = Let ring

The timing's hard to show in tab - listen to the CD to match it all up.
I'm not sure if the original song had two different bridges, or whether 
Nirvana (or me!) just messed up,
but this sounds like what's being played on the Unplugged In New York album.

                                  Verse
Gb|--------------------------------------------------------|
Db|--------------------------------------------------------|
Ab|----------------------5-5~-------5-5~-----3----------|
Eb|--0~-------------------------------------------0--0~--|

                                 Bridge 1
Gb|--------------------------------------------------|
Db|--------------------------------------------------|
Ab|----------------------5-5--3-3-3-3-5-5-----7~--|
Eb|--0~--------------------------------------0-------|
[ Tab from: http://www.guitartabs.cc/tabs/n/nirvana/oh_me_btab.html ]
		Bridge 2
Gb|----------------------------------------------|
Db|----------------------------------------------|
Ab|----------------------5-5--3-3-5-5-----7~--|
Eb|--0~---------------------------------0-------|

	                Chorus
Gb|-----------------------------------------------------------------------|
Db|-----------------------------------------------------------------------|
Ab|-----------------------------------------------------3-3--5-5---------|
Eb|--3---0~------3---0~------3---0~------3---0~---------------0-0~--|


		Outro
Gb|-----------------------------------------------------------------------|
Db|-----------------------------------------------------------------------|
Ab|--5-5----3-3--------------5-5----3-3-------------5-5----3-3--------|
Eb|-----------------0~----------------------0~---------------------0~--|


Gb|---------------------------------------------|
Db|---------------------------------------------|
Ab|--5-5--0-3-3--0----------5-5--0-3---------|
Eb|------------------0~-----------------3--0~-|

Play it as:			Verse x 3
			Bridge 1 x 1
			Chorus x 1
			Verse x 1 (over guitar solo)
			Verse x 3
			Bridge 2 x 1
			Chorus x 1
			Outro x 1

Any corrections / comments / requests then email me.

Comments