Nirvana - Nevermind Chords & Tabs

 

Nevermind Chords & Tabs

Nirvana Chords & Tabs

Version: 5 Type: Tab 0 ratings
1 star 2 stars 3 stars 4 stars 5 stars
comments

Nevermind Tab

#----------------------------------PLEASE NOTE--------------------------------#
#This file is the author's own work and represents their interpretation of the#
#song. You may only use this file for private study, scholarship, or research.#
#-----------------------------------------------------------------------------#

Artist: Nirvana
Album: Nevermind (the one with the naked baby for those of you who live under a rock)

Notes: Standard Tuning on All except #3 (Come as You Are)




      1.  Smells Like Teen Spirit

  Intro/Chorus
|-------------------------------|
|-------------------------------|
|-------------------------------|
|-3-3-3-8-8-8-5-5-5-11-11-11----|
|-3-3-3-8-8-8-5-5-5-11-11-11----|
|-1-1-1-6-6-6-3-3-3--9--9--9----|


 Verse
|---1----|
|-1------|
|--------|
|--------|
|--------|
|--------|


  Bridge
|--------------------------------|
|--------------------------------|
|-----------3--------------------|
|-1-0-1-6-6---1-0-1-10-10-8-8----|
|-1-0-1-6-6---1-0-1-10-10-8-8----|
|-3-2-3-4-4---3-2-3--8--8-6-6----|

 Solo
|-----------------------------------------------------------------------------|
|-----------------------------------------------------------------------------|
|----8/10---8-8b-6\5-6\5-------------------8-10---8-8b-6\5-6\5----------------|
|-10------6----------------8-6-8-8b-6\5-10------6--------------8-6-8-8b-6\5---|
|-----------------------------------------------------------------------------|
|-----------------------------------------------------------------------------|


  Verse 2/Interlude
|------------------------|
|------------------------|
|------------------------|
|-6\5-6\5-6\5-6\5/6\5\3--|
|------------------------|
|------------------------|

 
     2. In Bloom
  Intro
|---------------------------------|
|---------------------------------|
|-3-3-3---------------------------|
|-3-3-3-5--------3-3-3-6----------|
|-1-1-1-5(hold)--3-3-3-6(hold)----|
|-------3--------1-1-1-4----------|


  Verse
|-----------------------------------|
|-----------------------------------|
|---------------8-8-xx--------------|
|-8-8-xx-6-6-xx-8-8-xx-11-11-9-9----|
|-8-8-xx-6-6-xx-6-6-xx-11-11-9-9----|
|-6-6-xx-4-4-xx---------9--9-7-7----|


  Chorus
|---------------------------------|
|---------------------------------|
|-3-3-3---------------------------|
|-3-3-3-5-5-5------3-3-3-3-6------|
|-1-1-1-5-5-5(x4)--3-3-3-3-6(hold)|
|-------3-3-0------1-1-1-1-4------|


  3. Come As You Are   (Drop D Tuning)

     Intro/Verse
|----------------------------------|
|----------------------------------|
|----------------------------------|
|----------------------------------|
|----------------------------------|
|-0-0-1-2-5-2-5-2-2-1-0-5-0-0-5----|


   Pre - Chorus
|-------0------------------|
|-------0------------------|
|-------------2-2-2-2-2----|
|-4-4-4---4-4-2-2-2-2-2----|
|-4-4-4---4-4-0-0-0-0-0----|
|-4-4-4---4-4--------------|


  Chorus
|-----------------------------|
|-----------------------------|
|-----------------------------|
|-8-8-8-8-8-11-11-11-11-11----|
|-8-8-8-8-8-11-11-11-11-11----|
|-8-8-8-8-8/11-11-11-11-11----|


   Solo
|---------------------------------------------|
|---------------------------------------------|
|----9b-11b----9b-11b----9b-11b--11b-9b-------|
|-11b------11b-------11b---------------11b----|
|---------------------------------------------|
|---------------------------------------------|


  4. Breed

  Intro/Verse Gtr. 1
|----------------|
|----------------|
|----------------|
|-4-4-4-4-6--6---|
|-4-4-4-4-6b-6---|
|-2-2-0-2/4--0---|


  Verse Gtr. 2
|------------------------------|
|------------------------------|
|------------------------------|
|-4-4-4-4-4-4-4-4-4-4-4-4-0----|
|-4-4-4-4-4-4-4-4-4-4-4-4-1b---|
|-2-2-2-2-2-2-2-2-2-2-2-2------|


  Chorus
|------------------------|
|------------------------|
|------------------------|
|-5-5-5-2-2-8-8-8-6-6----|
|-5-5-5-2-2-8-8-8-6-6----|
|-2-2-2-0-0-6-6-6-4-4----|


   Solo
|----------------------------|
|----------------------------|
|----------------------------|
|----------------------------|
|-11-11-11-10-9-8-7-6-5-4----|
|----------------------------|


  5. Lithium
[ Tab from: http://www.guitartabs.cc/tabs/n/nirvana/nevermind_tab_ver_5.html ]
  Intro/Verse
|--------------------------------------------------------------|
|--------------------------------------------------------------|
|--------------------------------------------------------------|
|-2-2-2---------6-6-6-0-2-2-2-2-5-5-5-7-7-7-7-4-4-4-7-7-7-7----|
|-2-2-2-6-6-6-0-4-4-4-0-0-0-0-0-3-3-3-5-5-5-0-2-2-2-5-5-5-0----|
|-0-0-0-4-4-4-0------------------------------------------------|


  Chorus
|------------------------------------------------------------|
|------------------------------------------------------------|
|---------------6-6-6-2-2-2-2-5-5-5-7-7-7-7-4-4-4-7-7-7-7----|
|-2-2-2-6-6-6-6-6-6-6-2-2-2-2-5-5-5-7-7-7-7-4-4-4-7-7-7-7----|
|-2-2-2-6-6-6-6-4-4-4-0-0-0-0-3-3-3-5-5-5-0-2-2-2-5-5-5-0----|
|-0-0-0-4-4-4-0----------------------------------------------|


  Bridge
|----------------------------------------------------------|
|----------------------------------------------------------|
|----------------------------------------------------------|
|-2-2-2-5-5-2-2-2-5-6-5-6--7-7-7-7-7-7-7-4-4-4-4-----------|
|-0-0-0-3-3-0-0-0-3/4\3/4--5-5-5-5-5-5-0-2-2-2-2------2----|
|------------------------------------------------0-3b-0----|


  6. Polly

  Intro/Verse
|------------------------------|
|------------------------------|
|---------------7-7-5-5-5-0----|
|-2-x-x-5-5-x-x-7-7-5-5-5-0----|
|-2-x-x-5-5-x-x-5-5-3-3-3-0----|
|-0-x-x-3-3-x-x----------------|


  Chorus
|--------------------------------|
|--------------------------------|
|-7-7-x-5-5-5-0------------------|
|-7-7-x-5-5-5-0-5-5-x-8-8-8-0----|
|-5-5-x-3-3-3-0-5-5-x-8-8-8-0----|
|---------------3-3-x-6-6-6-0----|


  7. Territorial Pissings

    Intro/Verse/Chorus
|------------------------------------------------|
|------------------------------------------------|
|----------1010101010101010-777-6-777-6-777-6----|
|-77777777-1010101010101010-777-6-777-6-777-6----|
|-77777777--8-8-8-8-8-8-8-8-555\4/555\4/555\4----|
|-55555555---------------------------------------|


  Bridge
|---------------------------------|
|---------------------------------|
|---------------------------------|
|-x-x-7-x-x-7-x-x-7-x-x-7-x-x-7---|
|-x-x-7-x-x-7-x-x-7-x-x-7-x-x-7---|
|-x-x-5-x-x-5-x-x-5-x-x-5-x-x-5---|


  8. Drain You

   Intro/Verse
|--------------------------------|
|--------------------------------|
|-2-2-2-6-6-6-0-------4-4-4-0----|
|-2-2-2-6-6-6-0-4-4-0-4-4-4-0----|
|-0-0-0-4-4-4-0-4-4-0-2-2-2-0----|
|---------------2-2-0------------|


  Pre-Chorus
|----------|
|----------|
|----------|
|-7-5-4----|
|-7-5-4----|
|-5-3-2----|


  Chorus
|-------------------------------|
|-------------------------------|
|-4-4-4-4-7-7-7-7---------------|
|-4-4-4-4-7-7-7-7-(x4)-7-5-4----|
|-2-2-2-2/5-5-5-5------7-5-4----|
|----------------------5-3-2----|


  9. Lounge Act

  Intro/Verse
|----------------------------|
|----------------------------|
|-------------------5-5-0----|
|-9-9-9-9-9-9-5-5-5-5-5-0----|
|-9-9-9-9-9-9-5-5-5-3-3-0----|
|-7-7-7-7-7-7-3-3-3----------|


  Chorus
|----------------|
|----------------|
|----------------|
|-7-5-4-5-5-2----|
|-7-5-4-5-5-2----|
|-5-3-2-3-3-0----|


  Bridge
|----------------------|
|----------------------|
|----------------------|
|-77-7-7--66--5-55-----|
|-77-7-7--66--5-55-----|
|-55-5-5\-44\-3-33/----|


  10. Stay Away

   Intro/Chorus
|-----------------------------------------|
|-----------------------------------------|
|-7-7-7-0---------10-10-10----------------|
|-7-7-7-0-9-9-9-0-10-10-10-10-10-10-11----|
|-5-5-5-0-9-9-9-0--8--8--8-10-10-10-11----|
|---------7-7-7-0-----------8--0--8--9----|


  Verse
|------------|
|------------|
|------------|
|-----9------|
|-888-9b-----|
|------------|


  Bridge
|---------------------------------|
|---------------------------------|
|-7-7-7-5-77777770----------------|
|-7-7-7-5-77777770-4---------9----|
|-5-5-5\3/55555550-4---8-8-8-9b---|
|------------------2--------------|


  11. On A Plain

  Intro
|------------------------------|
|------------------------------|
|------------------------------|
|------------------------10----|
|-5/6\5/6\5/6--5/6\5/6-9/10b---|
|------------------------------|


  Verse
|------------------------|
|------------------------|
|------------------------|
|-5-5-3-3-2-2-4-2-3-4----|
|-5-5-3-3-2-2-3-2-3-4----|
|-3-3-1-1-0-0-1-0-1-2----|


  Chorus
|----------------|
|----------------|
|----------------|
|-5-5-5-8-8-3----|
|-5-5-5-8-8-3----|
|-3-3-3-6-6\1----|


  Bridge
|--------------------------------|
|--------------------------------|
|--------------------------------|
|-3-3-3-2-2-2-7-7-7-55555--------|
|-3-3-3-2-2-2-7-7-7-55555--------|
|-1-1-1-0-0-0-5-5-5-33333--------|


  12. Something In The Way
(warning: I didnt really feel like tabbing this one, so its all wrong for sure)
  
    Whole Song 
|------------------------|
|------------------------|
|-5-5-5-5-0--------------|
|-5-5-5-5-0-6-6-6-6-0----|
|-3-3-3-3-0-6-6-6-6-0----|
|-----------4-4-4-4-0----|
Comments