Nirvana - Negative Creep Chords & Tabs

 

Negative Creep Chords & Tabs

Nirvana Chords & Tabs

Version: 3 Type: Tab 0 ratings
1 star 2 stars 3 stars 4 stars 5 stars
comments

Negative Creep Tab

i  am  almost  certain  this  tab  is  correct  it  sounds  good  for  me  if  
you  think its  crap  then  please  tell  me at  the  bottom thanx  .

this is the riff which is played throughout the song .
the intro this must be p.m on the open string very heavily
:-----------------------------------------------------
:-----------------------------------------------------
:-----------------------------------------------------
:-----------------------------------------------------
:-----------------------------------------------------
:000-2/12-000-12/2-000-2/12-000-12/2000---------------
[ Tab from: http://www.guitartabs.cc/tabs/n/nirvana/negative_creep_tab_ver_3.html ]
this also  goes  throughout  the  verse
:-----------------------------------------------------
:-----------------------------------------------------
:-----------------------------------------------------
:-----------------------------------------------------
:-----------------------------------------------------
:000-2/12-000-12/2-000-2/12-000-12/2000---------------


Then  the  chorus

:-----------------------------------------------------
:-----------------------------------------------------
:-----------------------------------------------------
:-----------------------------------------------------
:-6-6-4------------4-7-7-7-4--------------------------
:------3-3-3-3--4-6-----------------------------------

played throughout verse

pleasecontact me with any comments or alterations at 
sottsott2001@aol.com

Thanx   ps  kurt Cobain rules !!!
Comments