Nirvana - Mrs Butterworth Chords & Tabs

 

Mrs Butterworth Chords & Tabs

Nirvana Chords & Tabs

Version: 3 Type: Tab 0 ratings
1 star 2 stars 3 stars 4 stars 5 stars
comments

Mrs Butterworth Tab

   
Mrs. Butterworth
Nirvana
With the Lights Out

intro/verse
eb[-------------------o
Bb[-------------------o
Gb[-------------------o
Db[----2-----------3--o
Ab[----------------3--o
Eb[--0---5p3p0-0-0-1--o

[ Tab from: http://www.guitartabs.cc/tabs/n/nirvana/mrs_butterworth_tab_ver_3.html ]
chorus
     F5   Eb5    Bb5    B5
eb[--------------------------------o
Bb[--------------------------------o
Gb[-------9-9-9--4-4-4--5-5-5-5----o
Db[--4-4--9-9-9--4-4-4--5-5-5-5----o
Ab[--4-4--7-7-7--2-2-2--3-3-3-3----o
Eb[--2-2---------------------------o


Bass line for "I'm gonna open myself up a flee market"
Gb[-----------------o
Db[--------------3--o
Ab[-----------------o
Eb[--0-0-5-3-0-0----o

changes to this at "People will be paying top dollar"
Gb[-----------------o
Db[-----------------o
Ab[-----------------o
Eb[--0-0-0-0-0-0-0--o


Tuned a half-step down
Listen to song for timing and order
Comments