Nirvana - Mrs Butterworth Chords & Tabs

 

Mrs Butterworth Chords & Tabs

Nirvana Chords & Tabs

Version: 2 Type: Tab 0 ratings
1 star 2 stars 3 stars 4 stars 5 stars
comments

Mrs Butterworth Tab

   
-------------------------------------------------------------------------------
			     Mrs. Butterworth - Nirvana
-------------------------------------------------------------------------------
Tabbed by:Nirvanabe1
Email:Chaze101@Hotmail.com

Tuning:Standered

IM NOT SURE IF THIS IS RIGHT BUT, IT SOUNDS LIKE It
FOR THE PEOPLE WHO DON'T KNOW IT.THIS SONG IS

some feedback in the beginning

VERSE:
[ Tab from: http://www.guitartabs.cc/tabs/n/nirvana/mrs_butterworth_tab_ver_2.html ]
      e            G#   A
e:----------------------0--------------------------:
B:----------------------2--------------------------:
G:----------------------2--------------------------:
D:----2-2-2H3P2-0--4-4--2-----------REPEAT-20X'S---:
A:----2-2----------4-4--0--------------------------:
E:-----------------2-2-----------------------------:


CHORUS:

      F     D  A      A#      
e:-------------------------------------------------:
B:-------------------------------------------------:
G:--------X-7-7---------------0--------------------:
D:----4-X-X-7-7-7-7-7/8-8-8-8-0-----REPEAT-4X'S----:
A:----4-X-X-5-5-7-7-7/8-8-8-8-0--------------------:
E:----2-X-------5-5-5/6-6-6-6-0--------------------:
Comments