Nirvana - Mr Moustache Chords & Tabs

 

Mr Moustache Chords & Tabs

Nirvana Chords & Tabs

Version: 2 Type: Tab 0 ratings
1 star 2 stars 3 stars 4 stars 5 stars
comments

Mr Moustache Tab

#----------------------------------PLEASE NOTE--------------------------------#
#This file is the author's own work and represents their interpretation of the#
#song. You may only use this file for private study, scholarship, or research.#
#-----------------------------------------------------------------------------#
#-- File created with Instab - http://www.pconline.com/~smcarey/instab.html --#
#-----------------------------------------------------------------------------#

Author/Artist: Nirvana
Title: Mr moustache
Album: bleach
Transcribed by: Alex Lewis
Email: Korn1@another.com

THe first riff is quite difficult at first but you get the hang of it quite quic
kly just persevere
[ Tab from: http://www.guitartabs.cc/tabs/n/nirvana/mr_moustache_tab_ver_2.html ]
---------------------------------|-----------------------|--------------------|
---------------------------------|-----------------------|--------------------|
---------------------------------|-----------------------|--------------------|
---------------------------------|---5-5--3xxx-----------|--------------------|
---2---------------1-------------|---5-5--3xxx-----------|--------------------|
-3---3-2-1-0-1-2-3---3-2-1-0-1-2-|---3-3--1xxx-----------|--------------------|
    Repeat this 3 times            do this then 1st riff

-------------------|----------------------------------------------------------|
-------------------|----------------------------------------------------------|
-4-5-5-5-----------|--------------------------5-5-5-5-5--8-8-8-8-8-8-8--------|
-4-5-5-5-5-5-5-5-5-|---7-7-7-7-7---7-7-7-7-7--5-5-5-5-5--8-8-8-8-8-8-8--------|
-2-3-3-3-5-5-5-5-5-|---7-7-7-7-7---7-7-7-7-7--3-3-3-3-3--6-6-6-6-6-6-6--------|
---------3-3-3-3-3-|---5-5-5-5-5---5-5-5-5-5----------------------------------|
   do this 3 times             then this and then do it all over again
Comments