Nirvana - Marigold Chords & Tabs

 

Marigold Chords & Tabs

Nirvana Chords & Tabs

Version: 3 Type: Bass Tab

Marigold Bass Tab

Marigold
Nirvana (my fav band in the world)
tabbed by incesticide0041@yahoo.com

intro/verse

G|-----------------|-------------------|
D|-1-1-------------|-------------------|
A|-------3---3-3-2-|-1-1---1/2---1-----|
E|-----------------|---------------3-0-|

G|-----------------|-------------------|
D|-1-1-------------|-------------------|
A|-------3---3-3-2-|-1-1-1-1/2---2-2-4-|
E|-----------------|-------------------|

chorus
[ Tab from: http://www.guitartabs.cc/tabs/n/nirvana/marigold_btab_ver_3.html ]
G|-----------------|-----------------|
D|-----------------|-----------------|
A|-----------------|-----------------|
E|-2-2-2-2-2-2-2-2-|-4-4-4-4-4-2-1-0-|

G|-----------------|-----------------|
D|-1-1-1-1-1-1-1-0-|-----------------|
A|-----------------|-3-3-3-3-3-1---3-|
E|-----------------|-------------4---|
                                        to end
G|-----------------|-----------------||---------|
D|-----------------|---------------0-||-1~~~----|
A|-2-2-2-2-2-2-2-2-|-2-2-2-2-2-1-0---||---------|
E|-----------------|-----------------||---------|

that's pretty much it...
enjoi and please rate...