Nirvana - Love Buzz Chords & Tabs

 

Love Buzz Chords & Tabs

Nirvana Chords & Tabs

Version: 5 Type: Tab 0 ratings
1 star 2 stars 3 stars 4 stars 5 stars
comments

Love Buzz Tab

   
-----------------------------------------------------------------------------
			     Love Buzz - Nirvana
-----------------------------------------------------------------------------
Tabbed by:skatersic666
Email:totalrock2003@yahoo.com

Tuning:Normal (E A D G B E)
Listen to the CD for timing

Ok this is Love Buzz, im not sure how the fast bit is tabbed out but i have a few 
ways of doing it so try them out and see which one you think sounds right or which you like 
Try to change them to suite you.
First fast bit tab:
e|---0--3h4p3------------|
B|-------------3h4p3-----|
G|---------------------3-|
D|-----------------------|
A|-----------------------|
E|-----------------------|

Second fast bit tab:
e--0h4p5p4p0-----------------------|
B------------0h4p5p4p0-------------|
G-----------------------0h4p5p4p0--|
D----------------------------------|
A----------------------------------|
E----------------------------------|

Thrid fast tab bit:
e--0-4p5h4----------------------|
B-----------4h5p4---------------|
G--------------------4h5p4p0----|
D-------------------------------|
A-------------------------------|
E-------------------------------|
You may be able to come up with a variation on those which sound better.
For the tab i am going to use the fast part version 1.

-----------------------------------------------------------------------------
			     The Tab Itself
-----------------------------------------------------------------------------
INTRO (played on bass but can be played on gutiar):
e|-------------------|------------------|
B|-------------------|------------------|
G|-------------------|------------------| x8
D|-------------------|------------------|
A|----------5h6p5----|---------5h6p5----|
E|-6~6-5-6---------6-|---6-5-6--------6-|


RIFF 1:
   A#
e|--------------------------------------|
B|--------------------------------------|
G|-3----3-3-----3-3--------3--3---------|
D|-3----3-3-----3-3--------3--3---------|
A|-1----1-1-----1-1--------1--1---------|
E|--------------------------------------|


RIFF 2:
  A#                       A#
e|---0--3h4p3------------|----0--3h4p3-------------|
B|-------------3h4p3-----|--------------3h4p3------|
G|-3-------------------3-|--3-------------------3--| x4
D|-3---------------------|--3----------------------|
A|-1---------------------|--1----------------------|
E|-----------------------|-------------------------|


RIFF 3:
e|-----------------|
B|-----------------|
G|-----------------|
D|--------1h2p1----| x4
A|-0-2-3--------2--|
E|-----------------|


RIFF 4:
  A#
e|---0--3h4p3------------|           e|-------------|
B|-------------3h4p3-----|           B|-------------|
G|-3-------------------3-| x3 THEN:  G|--3----------|
D|-3---------------------|           D|--3----------|
A|-1---------------------|           A|--1----------|
E|-----------------------|           E|------6/16---|


VERSE 1:
(no guitar/Bass plays intro riff)


CHORUS 1:
   A#
e|-------------------------------|
B|-------------------------------|
G|-3------3----3-3---3-------3---|
A|-3----3-3----3-3---3-----3-3---|
D|-1----1-1----1-1---1-----1-1---|
E|-------------------------------|

[ Tab from: http://www.guitartabs.cc/tabs/n/nirvana/love_buzz_tab_ver_5.html ]
RIFF 2:
  A#                       A#
e|---0--3h4p3------------|----0--3h4p3-------------|
B|-------------3h4p3-----|--------------3h4p3------|
G|-3-------------------3-|--3-------------------3--| x4
D|-3---------------------|--3----------------------|
A|-1---------------------|--1----------------------|
E|-----------------------|-------------------------|


RIFF 3:
e|-----------------|
B|-----------------|
G|-----------------|
D|--------1h2p1----| x4
A|-0-2-3--------2--|
E|-----------------|


FIRST SOLO:
I have no idea how this is played but i think a second guitar plays:
e|-------|
B|-------|
G|--3----|
D|--3----|
A|--1----|
E|-------|


RIFF 4:
  A#
e|---0--3h4p3------------|           e|-------------|
B|-------------3h4p3-----|           B|-------------|
G|-3-------------------3-| x3 THEN:  G|--3----------|
D|-3---------------------|           D|--3----------|
A|-1---------------------|           A|--1----------|
E|-----------------------|           E|------6/16---|


VERSE 2:
(no guitar/Bass plays intro riff)


CHORUS 2:
   A#
e|-------------------------------|
B|-------------------------------|
G|-3------3----3-3---3-------3---|
A|-3----3-3----3-3---3-----3-3---|
D|-1----1-1----1-1---1-----1-1---|
E|-------------------------------|


RIFF 4:
  A#
e|---0--3h4p3------------|           e|-------------|
B|-------------3h4p3-----|           B|-------------|
G|-3-------------------3-| x3 THEN:  G|--3----------|
D|-3---------------------|           D|--3----------|
A|-1---------------------|           A|--1----------|
E|-----------------------|           E|------6/16---|


SOLO 2:
No idea how this is played.


RIFF 2:
  A#                       A#
e|---0--3h4p3------------|----0--3h4p3-------------|
B|-------------3h4p3-----|--------------3h4p3------|
G|-3-------------------3-|--3-------------------3--| x4
D|-3---------------------|--3----------------------|
A|-1---------------------|--1----------------------|
E|-----------------------|-------------------------|


RIFF 3:
e|-----------------|
B|-----------------|
G|-----------------|
D|--------1h2p1----| x8
A|-0-2-3--------2--|
E|-----------------|


OUTRO:
   A#
e|-------------------------------------|
B|-------------------------------------|
G|-3------3----3-3---3-------3---------|
A|-3----3-3----3-3---3-----3-3---------|
D|-1----1-1----1-1---1-----1-1---------|
E|-------------------------------------|
 |  A#                                |
e|-------------------------------------|
B|-------------------------------------|
G|-3-3-3-3-3-3-3-3-3-3-3-3-3-3-----3---|
A|-3-3-3-3-3-3-3-3-3-3-3-3-3-3-----3---|
D|-1-1-1-1-1-1-1-1-1-1-1-1-1-1-----1---|
E|-------------------------------------|


-----------------------------------------------------------------------------
			     Lyrics
-----------------------------------------------------------------------------
Would you belive me when I tell you,
your the queen of my heart,
Please don't decive me when I hurt you,
It just ain't the way it seems.


Can you feel my love buzz?
Can you feel my love buzz?
Can you feel my love buzz?
Can you feel my love buzz__________?


Would you belive me when I tell you,
Your the queen of my heart,
Please don't decive me when I hurt you,
It just ain't the way it seems.


Can you feel my love buzz?
Can you feel my love buzz?
Can you feel my love buzz?
Can you feel my love buzz__________?


Seeeeahhhh


Wowwah, wowwah, wowwah, wowwah


-----------------------------------------------------------------------------
			     Key
-----------------------------------------------------------------------------
| /  slide up
| \  slide down
| h  hammer-on
| p  pull-off
| ~  vibrato
| +  harmonic
| x  Mute note
============================================================================
Comments