Nirvana - Lounge Act Chords & Tabs

 

Lounge Act Chords & Tabs

Nirvana Chords & Tabs

Version: 3 Type: Tab 4 ratings
1 star 2 stars 3 stars 4 stars 5 stars
comments

Lounge Act Tab

Bass intro;

G--------------------------------------}
D--------------------------------------}__play once
A--------------------------------------}
E-/7--8--10--2--2-2--3-3--10--8--7--5--}

G-----------------------------------}
D-----------------------------------}
A-----------------------------------}__play during any verse...i think!
E-/7--8--10--2--2-2--3-3--7-7-7--5--}

Guitar, verse;

e-----------------------------}
B-----------------------------}
G--4--4---4--4----------5--5--}__obviously not the correct rythm but its 
D--4--4---4--4---5--5---5--5--}  bloody hard to put rythm in2 tab..
A--2--2---2--2---5--5---3--3--}
E----------------3--3---------}

Chorus;
[ Tab from: http://www.guitartabs.cc/tabs/n/nirvana/lounge_act_tab_ver_3.html ]
e-----------------------------}
B-----------------------------}
G----------------7--7---------}__once again,the rythm aint right but
D--2--2---7--7---7--7---5--5--}  ya get the jist of things..(i dunno
A--2--0---7--7---5--5---5--5--}  the bass 4 the chorus im afraid,soz)
E--0--0---5--5----------3--3--}

lil run up to da verse;

e----------------------------}
B----------------------------}
G----------------------------}__thats it i think! yey! haha..
D--7--7--7--7--6-6-6--5-5-5--}
A--7--7--7--7--6-6-6--5-5-5--}
E--5--5--5--5--4-4-4--3-3-3--}

Dont expect all this to be right kids, cuz its me whos figured out and I'm
not very reliable,but it aint to bad, lemme know of mistakes etc..

                     *~Little^One~*
Comments