Nirvana - Lounge Act Chords & Tabs

 

Lounge Act Chords & Tabs

Nirvana Chords & Tabs

Version: 8 Type: Bass Tab 0 ratings
1 star 2 stars 3 stars 4 stars 5 stars
comments

Lounge Act Bass Tab

Lounge Act
Kurt Cobain
[ Tab from: http://www.guitartabs.cc/tabs/n/nirvana/lounge_act_btab_ver_8.html ]
--------------------------------------------------------------------------------
Intro/Verse/Interlude:
G|----------------------
D|----------------------
A|-2-2-2-------3--3-3-3-
E|-------3-3-3----------
--------------------------------------------------------------------------------
Chorus:
G|----------------- Repeat
D|---------0-0-----
A|-----0-0---------
E|-0-0---------3-3-

G|---------------
D|---------------
A|-0~----0-0-0-0-
E|---------------
--------------------------------------------------------------------------------
Questions or Comments?:

E-mail me at in_utero89@hotmail.com
Comments