Nirvana - Lounge Act Chords & Tabs

 

Lounge Act Chords & Tabs

Nirvana Chords & Tabs

Version: 7 Type: Bass Tab 0 ratings
1 star 2 stars 3 stars 4 stars 5 stars
comments

Lounge Act Bass Tab

[N I R V A N A]
Album:Nevermind
Song:Lounge Act

Verse

G--------------------------
D-------4------------------
A-0/2-5-------------5-3-2--
E---------2-3-2-3-2-------3
[ Tab from: http://www.guitartabs.cc/tabs/n/nirvana/lounge_act_btab_ver_7.html ]
G--------------------------
D--------------------------
A-0/2-5-4-----------3-2-0--
E---------2-3-2-3-2-------3

Chorus

G--------------------------------
D-----5h7p5-----7-------0-2------
A---0-------7-5-----0-2-----4-5--
E-0---------------3-------------3


There! Looks confusing,but it's pretty easy.
Any questions e-mail me at msrbsr_878@hotmail.com
Comments