Nirvana - Lounge Act Chords & Tabs

 

Lounge Act Chords & Tabs

Nirvana Chords & Tabs

Version: 6 Type: Bass Tab 0 ratings
1 star 2 stars 3 stars 4 stars 5 stars
comments

Lounge Act Bass Tab

   
#----------------------------------PLEASE NOTE---------------------------------#
#This file is the author's own work and represents their interpretation of the #
#song. You may only use this file for private study, scholarship, or research. #
#------------------------------------------------------------------------------#
#
Date: Thu, 25 Jan 1996 18:59:15 -0500
From: Don Pezet 
Subject: BTAB: Lounge Act by Nirvana

    I saw the Lounge Act bass tab here on the guitar archive,
when I saw how screwed up it was I had to send this correction
in. Here you go.

bass line:
[ Tab from: http://www.guitartabs.cc/tabs/n/nirvana/lounge_act_btab_ver_6.html ]
G|-----------------------------------------------|
D|-------4---------------------------------------|
A|-----5-----------5-3-2-0-2-5-4---------3-2-0---|
E|-5/7-----2-3-2-3---------------2-3-2-3-------3-|

From: MURR88@delphi.com
Date: Sun, 23 Jul 1995 21:47:25 -0400 (EDT)
Subject: lounge_act.btab 

bass line:

-------------|-------|-----------|----------|-------|------------|-----------
--------5----|-------|-----------|----------|-------|------------|.----------
------6------|-------|---6-5-----|----6-5---|-------|---6-5------|.----------
---/8------4-|-4-3-4-|-4-----8-6-|--8-----4-|-4-3-4-|-4-----8-6--|-----------

chorus:

goes  e-a-d-g.. the thing at the end is a:
<e>-5-5-5-5-5-4-4-4-3-3-3-3-|:
'das it!


Thanks to Mike Maronna for help in figuring out most of it 
--Chris Murray
wl-murski-kp@society.com
wl-murski-rok@society.com
murr88@delphi.com


Comments