Nirvana - Lounge Act Chords & Tabs

 

Lounge Act Chords & Tabs

Nirvana Chords & Tabs

Version: 5 Type: Bass Tab 1 rating
1 star 2 stars 3 stars 4 stars 5 stars
comments

Lounge Act Bass Tab

SONG: Lounge Act
ARTIST: Nirvana
ALBUM: Nevermind
TABBED BY BENDA  wacka_smacka@hotmail.com
Member of the bass tab army ~ www.basstabarchive.com

Main Riff
|-------------------------|-------------------------|
|---0-4-------------------|---0---------------------|
|/2-------------/5-4-2-0--|/2---4----------/3-2-0---|
|-------2-3-2-3-----------|--------2-3-2-3--------3-|

Prechorus
|----------------------|
|---0-4----------------|
|-2--------------------|
|-------2-3-2-3--5-5-5-|
[ Tab from: http://www.guitartabs.cc/tabs/n/nirvana/lounge_act_btab_ver_5.html ]
Chorus
|-------------------------------|--------------------------------|
|--------5h7p5------7-----------|-----------------7--------------|
|--------------7--5-----------5-|-7--7-------4--5----5-----------|
|-0---5---------------3---5-7---|------5---5------------3--0--3--|

Bridge
|------------------------------|------------------------------|
|------------------------------|-7--7--7--7--6-6-6-5-5-5-/9\--|
|------------------------------|------------------------------|
|-5--5--5--5--4-4-4-3--3-3-3---|------------------------------|

Last chorus
|---------------------------------|----------------------------------|
|----7-----7-7-----7-----5--5-5-7-|----7----7-7----7-----------------|
|-7-----7-------5-----5-----------|-7-----7-----5-----------------5--|
|---------------------------------|-------------------5--3--5---7----|


Comments