Nirvana - Lounge Act Chords & Tabs

 

Lounge Act Chords & Tabs

Nirvana Chords & Tabs

Version: 3 Type: Bass Tab 1 rating
1 star 2 stars 3 stars 4 stars 5 stars
comments

Lounge Act Bass Tab

Artist: Nirvana
Song: Lounge act
tabed by uglyguy01

I saw the other tab for this song and it is wrong. Sure its the same
notes but any thing worth doing is worth doing right! this is the
way Krist does it.

                               Verse

G---------------------------|----------------------|
D---------------------------|----------------------|
A-----5-9----------3/5-3-2-0|---5-4----------------|
E-5/7------2-3-2-3----------|-7-----2-3-2-3-8-7-5-3|
[ Tab from: http://www.guitartabs.cc/tabs/n/nirvana/lounge_act_btab_ver_3.html ]
                               Chorus

G-----------------------------|----------------------------|
D-------5-7-5------0----------|---------------3------------|
A--------------0-5---0--------|-------------5---5----------|
E-0-0-5----------------3-3-0-3|-0-0-5-5-3-5--------3-3-0-3-|

                             Post Chorus 

G-------------------|-----------------|
D-------------------|-----------------|
A-0-0-000---------5-|-----------3---5-|
E---------4-4-3-3---|-0-0-000-4---4---|

Have fun, NIRVANA RULES
Comments