Nirvana - Lounge Act Chords & Tabs

 

Lounge Act Chords & Tabs

Nirvana Chords & Tabs

Version: 10 Type: Bass Tab

Lounge Act Bass Tab

Band:Nirvana
Song:Lounge Act
Tempo:156
Tuning:Standard
Tabbed By:SoadFreak II
Location:Somewhere in Bungfucked Egypt

Intro

G|-------------------------------------------------------------------------|
D|-------4-----------------------------------------------------------------|
A|-----5----------------------------5-4------------------------------------|
E|-3\7------2--3-2--3\10--8-7-5---7-----2--3-2--3\8-7-5-3------------------|

This part has to be play a little before the chorus and then it goes to the chorus.

G|-------------------------------------------------------------------------|
D|-------4--------------------------------5h7--5-------7-------------------|
A|-----5-----------------------------------------7--5------------5---------|
E|--\7-----2--3-2--3\7-----5-5-5-0-----5------------------3--5-7-----------|

G|-------------------------------------------------------------------------|
D|------------------7----------------------5h7--5------7-------------------|
A|--7--7-------4--5---5---------------------------7-5-------------5--------|
E|-------5--5-----------3---0-3\-0-----5------------------3--5-7-----------|

G|-------------------------------------------------------------------------|
D|-------------------7---5---5-5-------------------------------------------|
A|--7--7--------4-5----5---------------------------------------------------|
E|-------5--5---------------------0--5--5--5--5--5-------------------------|
[ Tab from: http://www.guitartabs.cc/tabs/n/nirvana/lounge_act_btab_ver_10.html ]
G|-------------------------------------------------------------------------|
D|------------------------------7--7---7--7--6--6--6--5-----5\9------------|
A|--------------------------0----------------------------------------------|
E|----4--4--4--3---3--3--3-------------------------------------------------|


G|-------------------------------------------------------------------------|
D|-------4-----------------------------------------------------------------|
A|-----5----------------------------5-4------------------------------------|
E|-3\7------2--3-2--3\10--8-7-5---7-----2--3-2--3\8-7-5-3------------------|
 

G|-------------------------------------------------------------------------|
D|-------4--------------------------------5h7--5-------7-------------------|
A|-----5-----------------------------------------7--5------------5---------|
E|--\7-----2--3-2--3\7-----5-5-5-0-----5------------------3--5-7-----------|

G|-------------------------------------------------------------------------|
D|------------------7----------------------5h7--5------7-------------------|
A|--7--7-------4--5---5---------------------------7-5-------------5--------|
E|-------5--5-----------3---0-3\-0-----5------------------3--5-7-----------|

G|-------------------------------------------------------------------------|
D|------------------7---5---5-5-7-----7-----7-7---7--5----5-5-7------------|
A|--7--7--------4-5---5-----------7-------7-----5--5-----------------------|
E|--------5--5-------------------------------------------------------------|

G|-------------------------------------------------------------------------|
D|---------7-------7-7-----7-----------------------------------------------|
A|--7---7-------7-------5---------------5----------------------------------|
E|---------------------------5-3---5-7-------------------------------------|

Outro Note

G|----|
D|----|
A|----|
E|--5-|