Nirvana - Lithium Chords & Tabs

 

Lithium Chords & Tabs

Nirvana Chords & Tabs

Version: 8 Type: Tab 0 ratings
1 star 2 stars 3 stars 4 stars 5 stars
comments

Lithium Tab

   
This is 100% correct, I got it from a Nirvana tab book.

Play this during both the verse and the chorus (distorted during chorus)

 E5       G#5       C#5     A5        C5      D5        B5      D5

e-----------------|-----------------|-----------------|-----------------|
B-----------------|-----------------|-----------------|-----------------|
G-----------------|-----------------|---------2-2-2-2-|---------2-2-2-2-|
D-----------------|-6---6-6-2-2-2-2-|-5---5-5-0-0-0-0-|-4---4-4-0-0-0-0-|
A-2---2-2-6---6-6-|-4---4-4-0-0-0-0-|-3---3-3---------|-2---2-2---------|
E-0---0-0-4---4-4-|-----------------|-----------------|-----------------|

Bridge

 A5         C5
e-----------------|
B-----------------|
G-----------------| Play this 
D---2---2---5---5-| 16 times
A---0---0---3---3-|
E-----------------|
[ Tab from: http://www.guitartabs.cc/tabs/n/nirvana/lithium_tab_ver_8.html ]
End of Bridge

 D5                 B5
e-----------------|-----------------|-----------------|
B-----------------|-----------------|-----------------|
G-2---2-2-2-2-2-2-|-----------------|-----------------|
D-0---0-0-0-0-0-0-|-4---4-4-4-4-4-4-|-4-4-4-4-4-4-----|
A-----------------|-2---2-2-2-2-2-2-|-2-2-2-2-2-2-----|
E-----------------|-----------------|-------------3---|

Outro

  D5                B5                                  E5
e-----------------|-----------------|-----------------|-----------------
B-----------------|-----------------|-----------------|-----------------
G-2---2-2-2-2-2-2-|-----------------|-----------------|-----------------
D-0---0-0-0-0-0-0-|-4---4-4-4-4-4-4-|-4-4-4-4-4-4-----|-2---------------
A-----------------|-2---2-2-2-2-2-2-|-2-2-2-2-2-2-----|-2---------------
E-----------------|-----------------|-------------3---|-0---------------
Comments