Nirvana - Lithium Chords & Tabs

 

Lithium Chords & Tabs

Nirvana Chords & Tabs

Version: 7 Type: Tab 0 ratings
1 star 2 stars 3 stars 4 stars 5 stars
comments

Lithium Tab

ok this is how to play Lithium live, like the mtv performance in '92.
 this is correct! however you can play it anyway ya want.
[ Tab from: http://www.guitartabs.cc/tabs/n/nirvana/lithium_tab_ver_7.html ]
e|---------------------------------------------|
B|---------------------------------------------|
G|-------------6-6-0------5-5-5-5/7-7-7-7------|
D|-2-2-0-6-6-0-6-6-0-7-77-5-5-5-5/7-7-7-7------|
A|-2-2-0-6-6-0-4-4-0-7-77-3-3-3-3/5-5-5-5------|
E|-0-0-0-4-4-0-------5-55----------------------|

e|---------------------------------------------|
B|---------------------------------------------|
G|-------------6-6-0------4-4-4-4/7-7-7-7------|
D|-2-2-0-6-6-0-6-6-0-7-77-4-4-4-4/7-7-7-7------|
A|-2-2-0-6-6-0-4-4-0-7-77-2-2-2-2/5-5-5-5------|
E|-0-0-0-4-4-0-------5-55----------------------|
Comments