Nirvana - Lithium Chords & Tabs

 

Lithium Chords & Tabs

Nirvana Chords & Tabs

Version: 11 Type: Tab 0 ratings
1 star 2 stars 3 stars 4 stars 5 stars
comments

Lithium Tab

   
Gtr I (E A D G B E) - 'Kurt Cobain - Rhythm clean'
Gtr II (E A D G B E) - 'Kurt Cobain - Rhythm w/dist (Gtr I w/dist)'

Intro
  Q=138
 4/4
  Gtr I
  Q  E E Q  E E   Q  E E E E E E   Q  E E E E E E   Q  E E E E E E
|---------------|----------------|----------------|----------2-2----||
|---------------|-6--6---------0-|-5--5-5-5-7-7---|-4--4-4-0-3-3-0--||
|---------------|-6--6-0-------0-|-5--5-5-5-7-7-0-|-4--4-4-0-2-2-0--||
|-------------0-|-6--6-0-------0-|-5--5-5-5-7-7-0-|-4--4-4-0-0-0-0--||
|-2--2-0-6--6-0-|-4--4-0-7-7-7---|-3--3-3-3-5-5-0-|-2--2-2----------||
|-0--0-0-4--4---|--------5-5-5---|----------------|-----------------||


   Verses
    Slower Q=128
    $
    Q  E E E E E E   Q  E E E E E E   Q  E E E E E E   Q  E E E E E E
||-----------------|----------------|----------------|----------------|
||o----------------|----6-----------|----------------|----4-----3-3---|
||-----------------|-6--6-------2---|-5--5-5s7---7---|----4-0-2-2-2---|
||-------------6---|-6--6-----2-2---|-5--5-5s7-7-7-0-|-4----0-0-------|
||o-2--x-----6-6---|-4--4---0-------|-3--3-3s5-----0-|-2----0-0-------|
||--0----0-4-----0-|------0-------0-|----------------|--------------0-|
 |-Rhy Fig 1                                            end Rhy Fig 1-|

Rhy Fig 1 x2

                                                             Gtr II
  Q  E E E E E E   Q  E E E E E E   Q  E E E E E E   E E E E E E E E
|----------------|----------------|----------------|------------------||
|----------------|----6-----------|----------------|-4-4-4-4----------||
|----------------|-6--6-------2---|-5--5-5s7---7---|-4-4-4-4-7-7-7----||
|------------6---|-6--6-----2-2---|-5--5-5s7-7-7-0-|-4-4-4-4-7-7-7-0--||
|-2--x-----6-6---|-4--4---0-------|-3--3-3s5-----0-|-2-2-2-2-5-5-5-0--||
|-0----0-4-----0-|------0-------0-|----------------|------------------||


 Chorus
  Gtr II
  Q  E E Q  E E   E E E E E E E E   Q  E E A E E E E   Q  E E Q  E E
|---------------|-----------------|------------------|---------------|
|---------------|-----------------|------------------|---------------|
|-------------0-|-6-6-6-6-2-2-2-0-|-5--5-5-5s7-7-7-0-|-4--4-4S7--7---|
|--------6--6-0-|-6-6-6-6-2-2-2-0-|-5--5-5-5s7-7-7-0-|-4--4-4S7--7-0-|
|-2--2---6--6-0-|-4-4-4-4-0-0-0-0-|-3--3-3-3s5-5-5-0-|-2--2-2S5--5-0-|
|-0--0-0-4--4---|-----------------|------------------|---------------|


  Q  E E Q  E E   E E E E E E E E   Q  E E A E E E E
|---------------|-----------------|------------------|
|---------------|-----------------|------------------|
|-------------0-|-6-6-6-6-2-2-2-0-|-5--5-5-5s7-7-7-0-|
|--------6--6-0-|-6-6-6-6-2-2-2-0-|-5--5-5-5s7-7-7-0-|
|-2--2---6--6-0-|-4-4-4-4-0-0-0-0-|-3--3-3-3s5-5-5-0-|
|-0--0-0-4--4---|-----------------|------------------|

[ Tab from: http://www.guitartabs.cc/tabs/n/nirvana/lithium_tab_ver_11.html ]
  Q  E E Q  E E   Q  E E Q  E E   E E E E E E E E
|---------------|---------------|-----------------|
|---------------|---------------|-----------------|
|-4--4-4S7--7---|-------------0-|-6-6-6-6-2-2-2-0-|
|-4--4-4S7--7-0-|--------6--6-0-|-6-6-6-6-2-2-2-0-|
|-2--2-2S5--5-0-|-2--2---6--6-0-|-4-4-4-4-0-0-0-0-|
|---------------|-0--0-0-4--4---|-----------------|


                    1.                 2.,D.S.
  Q  E E A E E E E   Q  E E Q  E E     Q  E E Q  E E
|------------------|----------------||---------------||
|------------------|---------------o||---------------||
|-5--5-5-5s7-7-7-0-|-4--4-4S7--7----||-4--4-4S7--7---||
|-5--5-5-5s7-7-7-0-|-4--4-4S7--7-0--||-4--4-4S7--7-0-||
|-3--3-3-3s5-5-5-0-|-2--2-2S5--5-0-o||-2--2-2S5--5-0-||
|------------------|----------------||---------------||


   Bridge
    Q  E E E E E E   Q  E E E E E E   Q  E E E E E E   Q  E E E E E E
||-----------------|----------------|----------------|----------------|
||o----------------|----------------|----------------|----------------|
||--2--2-0-5-5-5---|-2--2-0-5-5-5---|-2--2-0-5-5-5---|-2--2-0-5-5-5---|
||--2--2-0-5-5-5-0-|-2--2-0-5-5-5-0-|-2--2-0-5-5-5-0-|-2--2-0-5-5-5-0-|
||o-0--0-0-3-3-3-0-|-0--0-0-3-3-3-0-|-0--0-0-3-3-3-0-|-0--0-0-3-3-3-0-|
||-----------------|----------------|----------------|----------------|


                                                    1.
  Q  E E E E E E   Q  E E E E E E   Q  E E E E E E   Q  E E E E E E
|----------------|----------------|----------------|------------------||
|----------------|----------------|----------------|-----------------o||
|-2--2-0-5-5-5---|-2--2-0-5-5-5---|-2--2-0-5-5-5---|-2--2-0-5-5-5-----||
|-2--2-0-5-5-5-0-|-2--2-0-5-5-5-0-|-2--2-0-5-5-5-0-|-2--2-0-5-5-5-0---||
|-0--0-0-3-3-3-0-|-0--0-0-3-3-3-0-|-0--0-0-3-3-3-0-|-0--0-0-3-3-3-0--o||
|----------------|----------------|----------------|------------------||


  2.
                            To Coda
  Q  E E E E E E   E E E E E E E E   Q  E E E E E E
|----------------|-----------------|----------------||
|----------------|-----------------|----------------||
|-2--2-0-5-5-5---|-2-2-2-2-2-2-2-2-|-4--4-4-4-------||
|-2--2-0-5-5-5-0-|-0-0-0-0-0-0-0-0-|-4--4-4-4-------||
|-0--0-0-3-3-3-0-|-----------------|-2--2-2-2-0-----||
|----------------|-----------------|----------0-3p0-||


                                                 D.S. al Coda
  Gtr I
  Q  E E Q  q    Q  q  E E q    Q  Q  E E e E   Q  Q  E E Q
|--------------|--------------|---------------|---------------||
|--------------|--------------|---------------|-----------3---||
|--------------|----6------2--|----5------7---|----4----2-2---||
|-----------6--|----6----2-2--|----5----7-7-0-|----4--0-0-----||
|--------6--6--|-4-----0------|-3-----5-------|-2-----0-0-----||
|-0--x-0-4-----|--------------|---------------|---------------||


              H.=H
  &
  Gtr II             Gtr I
  E E E E E E Q        W
|--------------------|------*|
|--------------------|------*|
|-4-4-4-4-4----------|------*|
|-4-4-4-4-4-0--------|-2----*|
|-2-2-2-2-2-0--------|------*|
|-----------0-3b3.5--|-0----*|
Comments