Nirvana - Lithium Chords & Tabs

 

Lithium Chords & Tabs

Nirvana Chords & Tabs

Version: 7 Type: Bass Tab 0 ratings
1 star 2 stars 3 stars 4 stars 5 stars
comments

Lithium Bass Tab

   
Nirvana
Lithium - Bass solo

I was always looking for the base solo tab in this song and
i never found it so i went and tabbed it myself, sounds perfect

Tuning(Down one full step)
D G C F A D
[ Tab from: http://www.guitartabs.cc/tabs/n/nirvana/lithium_btab_ver_7.html ]
G|----------------------------------------------------
D|------------------------5-x-5s7-7-0-----------------
A|7-x-7-6-x-6-4-x-4-0---0-------------2-2-2-2s5-5-5--x
E|--------------------3-------------------------------

G|----------------------------------------------------
D|------------------------5-x-5s7-7-0-----------------
A|7-x-7-6-x-6-4-x-4-0---0-------------2-2-2-2s5-5-5---
E|--------------------3-------------------------------
Comments