Nirvana - Lake Of Fire Chords & Tabs

 

Lake Of Fire Chords & Tabs

Nirvana Chords & Tabs

Version: 3 Type: Tab 0 ratings
1 star 2 stars 3 stars 4 stars 5 stars
comments

Lake Of Fire Tab

   
USED CHORDS

  A     x02220
  Bb    x13331
  C5    x355xx
  D5    x577xx
  Dm    xx0231
  Dsus2 xx0230
  F5    133xxx
  Gm    3553xx




INTRO/MAIN - Chord names refer to parts of this tab so the 
             second 'GFC' is the same as the first 'GFC' etc.

    GFC                   GDC     
  |-------------------------------------------------------
  |-------------------------------------------------------
  |-3--3------------3-----3--3--------5---5---5-3---------
  |-5--5----5-3--3--3-----5--5--x-x-x-5---5---5-3---------
  |-5--5----5-3--3--1-----5--5--x-x-x-3---3---3-1---------
  |-3--3----3\1--1--------3--3----------------------------
  |
  |-------------------------------------------------------
  |-----------------------------------5b6r5b6r5-3---------
  |-----------------------------------5b6r5b6r5-3---------
  |-------------------------------------------------------
  |-------------------------------------------------------
  |-------------------------------------------------------

    GFC      DFC
  |--------------------------------
  |--------------------------------
  |-O/-------5--5-----5------------
  |-/O-------5--5-----5--3--3--5---
  |----------3--3-----3--3--3--5---
  |----------------------1--1--3---

    GFG                        
  |--------------------------------
  |--------------------------------
  |-3---3--------------------------
  |-5---5-------5---3---3---5------
  |-5---5-------5---3---3---5------
  |-3---3-------3---1---1---3------
  |
  |--------------------------------
  |--------------------------------
  |--------------------------------
  |---------------------3----------
  |-5-5-5-5-5-5-5-5-3---1---5------
  |-3-3-3-3-3-3-3-3-1-------3------

    GFG
  |-----
  |-----
  |-O/--
  |-/O--
  |-----
  |-----
  |
  |-----------------------------------------
  |----11~-11~-11~-11~-11~-11~\--6~--6~/8~--
  |-/10--10~-10~-10~-10~-10~--\5~--5~--/7~--
  |-----------------------------------------
  |-----------------------------------------
  |-----------------------------------------


VERSE 1 - Play main part


CHORUS

  Dm - Bb - Dm - A  -
  Dm - Bb - C  - Dm Dsus2


VERSE 2 - Play main part


CHORUS


VERSE 3 - Play main part, but play both GFG parts twice!


SOLO - 


  ------3---------3---------------------------------------
  --2-3---3--6b7------6-----------------------------------
  ----------------------5-3-------------------------------
  --------------------------5-3----------------------3-5--
  ------------------------------5-4-3----------3-4-5------
  ------------------------------------6-3----6------------
[ Tab from: http://www.guitartabs.cc/tabs/n/nirvana/lake_of_fire_tab_ver_3.html ]
  --------------------------------------------------------
  --3b4---------------6~----6~----------------------------
  --3b4-------(0)-5/7----7~----7\5--3---------------------
  -------5----------------------------5-------0-3---3-----
  -----------------------------------------/5-----5---5---
  --------------------------------------------------------

  -------------------------------3------------------------
  --------------------6~------/3---3-7-3------------------
  ----------------5/7----7\--------------3-5--------------
  -------------------------------------------3---5--------
  --3-----------------------------------------------------
  ----6-3-3-3----------------------------------3----------

  --------------------------------------------------------
  --3b4------3b4-----3b4----------------------------------
  --3b4------3b4-----3b4----------------------------------
  ------5-5------5-------5-3------------------------3-----
  ---------------------------5-4-3------------3-4-5-------
  ---------------------------------6-3----3-6-------------

  ----------------------
  ----------------------
  ------(3)-----(4)-----
  --3h5-----(3)-----5---
  ----------------------
  ----------------------

Solo variation

e|-------3---------3-------------------------------------|
B|--2/3-----3--6^-----6----------------------------------|
G|------------------------5--3---------------------------|
D|------------------------------5--3---------------------|
A|------------------------------------5--4--3------------|
E|---------------------------------------------6--3----3-|

e|-------------------------------------------------------|
B|------------------3^---------6~-6~---------------------|
G|------------------3^------/7--7~----5--3---------------|
D|-----------3--5-------5-------------------5--5--3------|
A|-----3--5-----------------------------------------5-5--|
E|--6----------------------------------------------------|

e|-------------------------------------------------------|
B|-------------------------------------------------------|
G|-------------------------------------------------------|
D|-3---3-------------------------------------------------|
A|---5---5--3--------------------------------------------|
E|-------------6-3--3--3---------------------------------|

e|-------------3-----------------------------------------|
B|-----6~--------3-6---3--------------3^---------3^------|
G|--/7------/7-------5---5-3----------3^---------3^------|
D|---------------------------5---4/5~----5--4/5~----5----|
A|-------------------------------------------------------|
E|-------------------------------------------------------|

e|-------------------------------------------------------|
B|--3----------------------------------------------------|
G|--3----------------------------------------------------|
D|-----5-3-----------------------3-3-h5------------------|
A|---------5-4-3-----------3-4-5-------------------------|
E|---------------6-3---3-6--------------3--6--3~---------|

Originaly by the Meat Puppets, but Nirvana did a great cover on their Unplugged album.
Please done bitch about this tab it took me ages to do, and it may not be perfect but
there are worse tabs on this site.. ahem *cough cough* blink 182 tabs *cough cough* if
you think its shit then give it a bad rating.
Comments