Nirvana - Lake Of Fire Chords & Tabs

 

Lake Of Fire Chords & Tabs

Nirvana Chords & Tabs

Version: 2 Type: Tab 0 ratings
1 star 2 stars 3 stars 4 stars 5 stars
comments

Lake Of Fire Tab

   
                                 Lake Of Fire                                   


                                                                   Curt Kirkwood
Guitar 1
Great song by Nirvana



                                                                            
E||------------------|------------------------|--------3-----3-------------|
B||------------------|--3--3-------------3----|-----3----3-x---5r-5r--3----|
G||------------------|--3--3-------------3----|----------x-x---5r-5r--3--0-|
D||------------------|--5--5----5\-3--3--3----|--5--5----x-x---------------|
A||------------------|--5--5----5\-3--3--1----|--5--5----------------------|
E||------------------|--3--3----3\-1--1-------|--3--3----------------------|


                                                                             
-------------------------|------------------------|-------------------------|
--------------------3----|------------------------|-------------------------|
--------------------3----|-----5------------------|-----------------------3/|
--5--5--x--5\-3--3--3----|--5--5----x--3--3--5----|--5--5-------------------|
--5--5--x--5\-3--3--1----|--3--3----x--3--3--5----|--5--5----5\-3--3/-5-----|
--3--3--x--3\-1--1-------|-------------1--1--3----|--3--3----3\-1--1/-3-----|


                                                                            
--------------------------------------------------|------------------------|
-----11----11----11----11----11\---6---6---6/8----|------------------------|
--10----10----10----10----10-----5---5---5---7----|------------------------|
--------------------------------------------------|------------------------|
--------------------------------------------------|--5--5----5\-3--3/-8----|
--------------------------------------------------|--3--3----3\-1--1/-6----|


                                                                            
-------------------------|------------------------|------------------------|
-------------5r-5r--3----|------------------------|------------------------|
-------------5r-5r--3----|-------------------3/---|--5--5----5-------------|
-----------------------5-|--5--5----5--------3/---|--5--5----5--3--3--5----|
--5--5----5------------5-|--5--5----5--3--3--1/---|--3--3----3--3--3--5----|
--3--3----3--------------|--3--3----3--1--1-------|-------------1--1--3----|


                                                                      
------------------------------|--------------------------------------|
------------------------------|-----11----11----11---11--6--6/8-8\---|
----------------------------3/|--10----10----10----------5--5/7-7\---|
------------------------------|--------------------------------------|
--5-5-5-5-5-5-5-5-3--8\-5-----|--------------------------------------|
--3-3-3-3-3-3-3-3-1--6\-3-----|--------------------------------------|


  Dm           Bb              Dm         A                        Bb           
--1--1---1-1---1--1---------|--1--1------------------|--1--1-------------------|
--3--3---3-3-3-1--1-----0-0-|--3--3----3--2--2----2--|--3--3----0--1--1----1/3-|
--2--2---2-2-3-3--3---3-0---|--2--2----2--2--2----2--|--2--2----0--3--3----3/5-|
--0--0-----0---3--3---------|--0--0----0--2--2----2--|--0--0-------3--3----3/5-|
----------------------------|-------------0--0----0--|-------------1--1----1/3-|
----------------------------|------------------------|-------------------------|


  C          D     Dm                                              
-------------------5---5-|---------------|------------------------|
--3--3----3--------6-----|--5h6p5--------|------------------------|
--5--5----5--7--7--7-----|--------7------|------------------------|
--5--5----5--7--7--7-----|----------7----|------------------------|
--3--3----3--5--5--5-----|---------------|--5--5----5\-3--3/-8----|
-------------------------|---------------|--3--3----3\-1--1/-6----|


                                                                            
-------------------------|------------------------|------------------------|
-------------5r-5r--3----|------------------------|------------------------|
-------------5r-5r--3----|-------------------3/---|--5--5----5-------------|
-----------------------5-|--5--5----5--------3/---|--5--5----5--3--3--5----|
--5--5----5------------5-|--5--5----5--3--3--1/---|--3--3----3--3--3--5----|
--3--3----3--------------|--3--3----3--1--1-------|-------------1--1--3----|

[ Tab from: http://www.guitartabs.cc/tabs/n/nirvana/lake_of_fire_tab_ver_2.html ]
                                                                             
-------------------------|--------------------------------------------------|
-------------------------|-----11----11----11----11----11\---6---6---6/8----|
-----------------------3/|--10----10----10----10----10-----5---5---5---7----|
----------------3--------|--------------------------------------------------|
--5--5----5\-3--1--5-----|--------------------------------------------------|
--3--3----3\-1-----3-----|--------------------------------------------------|


  Dm           Bb              Dm         A                        Bb           
--1--1---1-1---1--1---------|--1--1------------------|--1--1-------------------|
--3--3---3-3-3-1--1-----0-0-|--3--3----3--2--2----2--|--3--3----0--1--1----1/3-|
--2--2---2-2-3-3--3---3-0---|--2--2----2--2--2----2--|--2--2----0--3--3----3/5-|
--0--0-----0---3--3---------|--0--0----0--2--2----2--|--0--0-------3--3----3/5-|
----------------------------|-------------0--0----0--|-------------1--1----1/3-|
----------------------------|------------------------|-------------------------|


  C          D     Dm                                              
-------------------5---5-|---------------|------------------------|
--3--3----3--------6-----|--5h6p5--------|------------------------|
--5--5----5--7--7--7-----|--------7------|------------------------|
--5--5----5--7--7--7-----|----------7----|------------------------|
--3--3----3--5--5--5-----|---------------|--5--5----5\-3--3/-8----|
-------------------------|---------------|--3--3----3\-1--1/-6----|


                                                                            
-------------------------|------------------------|------------------------|
-------------5r-5r--3----|------------------------|------------------------|
-------------5r-5r--3----|-------------------3/---|--5--5----5-------------|
-----------------------5-|--5--5----5--------3/---|--5--5----5--3--3--5----|
--5--5----5------------5-|--5--5----5--3--3--1/---|--3--3----3--3--3--5----|
--3--3----3--------------|--3--3----3--1--1-------|-------------1--1--3----|


                                                               
-------------------------------|------------------------------|
-------------------------------|------------------------------|
-------------------------------|---------------------3------3/|
-------------------------------|---------------------3--5-----|
--5-5-5-5-5-5-5-5-3--8\-5--5-5-|--5-5-5-5-5-5-5-5-3--1--5-----|
--3-3-3-3-3-3-3-3-1--6\-3--3-3-|--3-3-3-3-3-3-3-3-1-----3-----|


                                                    
---------------------------------------------------|
-----11----11-11----11----11----11--6---6---6/8----|
--10----10-------10----10----10-------5---5---7----|
---------------------------------------------------|
---------------------------------------------------|
---------------------------------------------------|


                                                        
-------------------------------------------------------|
--11-11-11-11----11----11----11----11\6-6---6---6-8----|
--10----------10----10----10----10--------5---5---7----|
-------------------------------------------------------|
-------------------------------------------------------|
-------------------------------------------------------|


                                                                 
------3------3------------------|-------------------------------|
--2/3---3-6b----6---------------|-------------------------3b----|
------------------5-3-----------|-------------------------3b----|
----------------------5-3-------|-------------------3-3h5----5--|
--------------------------5-4-3-|-------------3-4-5-------------|
--------------------------------|--6-3-3--3-6-------------------|


                                                            
-------------------------------|---------------------------|
--------6~---6-----------------|---------------------------|
--3-5/7----7---7\5-3b----------|---------------------------|
---------------------5--5--3---|---3----3------------------|
-----------------------------5-|-----5----5-3--------------|
-------------------------------|--------------6-3--3--3----|


                                                          
------------------3-------------|------------------------|
------8-------2/3---3-6---3-----|----------3-------------|
--5/7------7\-----------5---3-5-|----------3-------------|
--------------------------------|--3----5-------5--3-5---|
--------------------------------|------------------------|
--------------------------------|------------------------|


                                                                               
----------------------------|-----------------------------|------------------||
--3-------3-----------------|-----------------------------|------------------||
--3-------3-----------------|-----------------------------|------------------||
-----5-------5-3------------|------------3-3h5------------|------------------||
-----------------5-4-3------|------3-4-5-------3----------|------------------||
-----------------------6-3--|--3-6----------------6--3----|------------------||



Comments