Nirvana - Lake Of Fire Chords & Tabs

 

Lake Of Fire Chords & Tabs

Nirvana Chords & Tabs

Version: 2 Type: Bass Tab 0 ratings
1 star 2 stars 3 stars 4 stars 5 stars
comments

Lake Of Fire Bass Tab

Nirvana
Lake of Fire

chorus
1:----------------------------------------------------------------------------
2:----------------------------------------------------------------------------
3:-----------0-------2-2-2-0------------0-2-2-2-------------------------------
4:-2-2-2-0-0---2-2-2----------2-2-2-0-0---------0-0-2-2-2-2-0-0-2-2-2-2-0-0-2-
[ Tab from: http://www.guitartabs.cc/tabs/n/nirvana/lake_of_fire_btab_ver_2.html ]
verse
1:---------------------------------------------------
2:---------------------------------------------------
3:-4-4-4-0-0-0-4-4-4-3-3-3-4-4-4-0-0-0-2-2-4-4-4-4-4-
4:---------------------------------------------------

solo part
1:-------------
2:-------------   play this about 8 times
3:-------------
4:-2-2-2-0-0-2-

play chorus 2 times in beginning
then verse 1 time
then chorus 1 time
verse 1
chorus 1
end with solo part
Comments