Nirvana - Jesus Dont Want Me For A Sunbeam Chords & Tabs

 

Jesus Dont Want Me For A Sunbeam Chords & Tabs

Nirvana Chords & Tabs

Version: 1 Type: Bass Tab 0 ratings
1 star 2 stars 3 stars 4 stars 5 stars
comments

Jesus Dont Want Me For A Sunbeam Bass Tab

   
Nirvana - Jesus Don't Want Me For A Sunbeam
MTV Unplugged

Tabbed by Gethin Jones

Tune all strings down 1/2 a step down
Eb Ab Db Gb

The origonall transcription that was posted said that just the root note was played
through out each bar. But I believe that this is actually what is played. And even if it isn't it sounds better than playing the root notes all the time.
The Bass is actually played by Dave Grohl as Krist is playing the Accordian.
[ Tab from: http://www.guitartabs.cc/tabs/n/nirvana/jesus_dont_want_me_for_a_sunbeam_btab.html ]
Intro/Verse
	     Eb		     Db		     Ab
	Gb|---------------|---------------|--------------------|
	Db|--2--2--2-4-2--|--0--0--0-2-0--|--------------------|
	Ab|---------------|---------------|--0--0--5-4-0---0---|
	Eb|---------------|---------------|--------------------|

Chorus
     	     Eb		     Db		   
	Gb|---------------|---------------|
	Db|--2--2--2-4-2--|--0--0--0-2-0--| X3
	Ab|---------------|---------------|
	Eb|---------------|---------------|

	     Ab
	Gb|-----------------------|
	Db|-----------------------|
	Ab|--0--0--0--5-4-0---0---|
	Eb|-----------------------|

Any questions, comments, corrections etc etc please contact me on gethin34@btinternet.com	

Comments