Nirvana - Jesus Doesnt Want Me For A Sunbeam Chords & Tabs

 

Jesus Doesnt Want Me For A Sunbeam Chords & Tabs

Nirvana Chords & Tabs

Version: 2 Type: Tab 0 ratings
1 star 2 stars 3 stars 4 stars 5 stars
comments

Jesus Doesnt Want Me For A Sunbeam Tab

   
E---------4--2-----|------------------|------------------|------------
B---5--5--------5--|--3---3---5--3--2-|--------------3---|------------
G------------------|------------------|-2----------------|--2----2----
D------------------|------------------|------------------|------------
A------------------|------------------|------------------|------------
E------------------|------------------|------------------|------------


E---------4--2-----|------------------|------------------|------------------|
B---5--5--------5--|--3---3---5--3--2-|--------------3---|------------------|
G------------------|------------------|-2----------------|--2---------------|
D------------------|------------------|------------------|------------------|
A------------------|------------------|------------------|------------------|
E------------------|------------------|------------------|------------------|

   E                 D                  A
E------------------|------------------|------------------|------------------|
B------------------|--------3--3------|---------------2--|------------------|
G------------------|-2---2--2--2----0-|----2---2--2---2--|-------2-------2--|
D------------------|-0---0--------0---|-2----2-----------|----2----------2--|
A-------2------0---|------------------|-0----------------|-0-------0--0----0|
E--0--0---0--0-----|------------------|------------------|------------------|

  E                  D                  A             D    A
E------------------|------------------|------------------|------------------|
B------------------|-3----3-----------|---------------3--|-2----------------|
G------------------|-2----2---2-----0-|------2--------2--|-2----2--------2--|
D------------------|-0--0--------0----|----2-------2-----|-2----2--------2--|
A---------------0--|------------------|-0------0---------|----0----0--0----0|
E--0--0--0---0-----|------------------|------------------|------------------|
[ Tab from: http://www.guitartabs.cc/tabs/n/nirvana/jesus_doesnt_want_me_for_a_sunbeam_tab_ver_2.html ]
   E                   D                    A
E--------------------|--------------------|--------------------|--------------------|
B--------------------|-------3------------|--------2-----------|--------2-----------|
G--------------------|-2--2--2------2-----|--------2-------2---|--------2-------2---|
D-----------------0--|-0------0--0--0--0--|-2---2----------2---|-2--2-----------2---|
A--------------2-----|-----------------0--|-0----------0-------|-0---------0--0----0|
E--0--0--0--0--------|--------------------|--------------------|--------------------|

   E                   D                    A5
E--------------------|--------------------|--------------------|--------------------|
B--------------------|--------3-----------|--------2--------3\2|-2---------------2--|
G--------------------|-2------2---2-----0-|--------2--------2--|-2------2--2--2--2--|
D-----------------0--|-----0---------0----|-2---2--------2-----|-2------2--2--2--2--|
A---------2----------|--------------------|-0---------0--------|----0---0--0--0--0--|
E--0---0-----0--0----|--------------------|--------------------|--------------------|


E--------------------|--------------------|--------------------|--------------------|
B--------------------|--------------------|--------------------|--------------------|
G--4---4-------------|--------------------|--4---4-------------|--------------------|
D-----------7----6---|-7------------------|-----------7----6---|-7------------------|
A--------------------|--------------------|--------------------|--------------------|
E--------------------|--------------------|--------------------|--------------------|


E--------------------|--------------------|--------------------|--------------------|
B--------------------|--------------------|--------------------|--------------------|
G--4---4-------------|--------------------|-----------------7--|--------------------|
D-----------7----6---|-7------------------|-7------------------|-7-----7------------|
A--------------------|--------------------|--------------------|--------------------|
E--------------------|--------------------|--------------------|--------------------|


E------------4--2----|------------------4-|-5-----5------------|--------------------|
B---5----5---------5-|-3----3----3---5----|----------------3---|--------------------|
G--------------------|--------------------|--------------------|------2-------------|
D--------------------|--------------------|--------------------|--------------------|
A--------------------|--------------------|--------------------|--------------------|
E--------------------|--------------------|--------------------|--------------------|
Comments