Nirvana - In Utero Chords & Tabs

 

In Utero Chords & Tabs

Nirvana Chords & Tabs

Version: 2 Type: Tab 0 ratings
1 star 2 stars 3 stars 4 stars 5 stars
comments

In Utero Tab

   
					IN UTERO

	
1.Serve the servants
2.Scentless apprentice
3.Heart-shaped box
4.Rape me
5.Frances Farmer will have her revenge on Seattle
6.Dumb
7.Very ape
8.Milk it
9.Pennyroyal tea
10.Radio friendly unit shifter
11.tourette's
12.All apologies
13.Gallons Of Rubbing Alchohol Flow Trough The Strip

*  *  *  *  *  *  *  *  *  *  *  *  *  *  *  *  *  *  *  *  *  *  *  *  *  *  *  *
				SERVE THE SERVANTS 

Tuning:Standard (˝step down)

N.C.
--------I-14------\I
--------I----14---\I
13------I-------13\I
12------I----------I
11------I----------I
--------I----------I

INTRO/VERSE
B7		   E7		      F7sus4	   E5
------------------I------------------I----0-0-0---I----0-0-0---I
------------------I-------3-----3----I----0-0-0---I----0-0-0---I
------2------2----I-----1-----1------I------X-X---I------X-X---I
----1-----1-----0-I-2-2-----------0--I-4----4-4-0-I-2----2-2-0-I
2-2---------------I---------------0--I-4----4---0-I-2----2---0-I
------------------I------------------I-2--------0-I-0--------0-I

CHORUS
A5    		 C#5
------0---------I-----------------I
------0---------I-----------------I
----------------I-6---6-6---6-6-6-I
7---7---7-7-7-0-I-6---6-6---6-6-0-I 4 times
7---7---7-7-7-0-I-4---4-4---4-4-0-I
5---5---5-5-5-0-I-4---4-4---4-4-0-I

F#5		 C5		   N.C.
----------------I-----------------I---------I13---I
----------------I-----------------I---------I-----I
----------------I-5-5-5-5-5-5-5-0-I-12------I-----I
4-4-4-4-4-4-4-4-I-5-5-5-5-5-5-5-0-I-11------I-----I
4-4-4-4-4-4-4-4-I-3-3-3-3-3-3-3-0-I-10------I-----I
2-2-2-2-2-2-2-2-I-3-3-3-3-3-3-3-0-I---------I-----I

SECOND CHORUS "N.C." ENDING:
N.C.
--------I-------I
--------I-14\---I
13------I-13\---I
12------I-12\---I
11------I-------I
--------I-------I


GUITAR SOLO
-------------------------I--------------------------I---------I----0--I
-------------------------I--------------------------I---------I----0--I
4b6==6=6=6=6=6=6=6=6=6=6=Igr4=4=4=4=4=4=4=4=4=4=4=4=I4p2p0----I----0--I
-------------------------I--------------------------I---------I----0--I
-------------------------I--------------------------I---------I-------I
-------------------------I--------------------------I------3b4I-0-----I
w/random pick harmonics_______________________________

----------------I-----------------I----------------I----------------I
----------------I-----------------I----------------I----------------I
----------------I-----------------I----------------I----------------I
----2-2b3-2-0---I-----------------I----------------I----------------I
2h4-----------2-I--0-2-2b4--2-2-2-I-2-4-4-4b5--4-4-I-4-2-2-2--2-2-0-I
----------------I-----------------I----------------I----------------I

-------------------------------I--------------------------------I---------------I------0-I
-------------------------------I--------------------------------I---------------I------0-I
-------------------------------I--------------------------------I---------------I------0-I
-------------------------------I--------------------------------I---------------I--------I
-------------------------------I--------------------------------I---------------I--------I
21b22==22=22=22=22=22=22=22=22=I22=22=22=22=22=22=22=22=22-r\5-5I5-7-7-7b9--7b9-I-7---7--I
 	A-string gets also picked randomly behind the bend

-----------------I----------------I-----------------I----------------I
-----------------I----------------I-----------------I-0-0-0-0--------I
----4h6-6h/7-6-7-I7h/9--9--7--6---I-6/7--7--7-6--4--I-4-4-4-4--2-2-0-I
4h6--------------I----------------I-----------------I----------------I
-----------------I----------------I-----------------I----------------I
-----------------I----------------I-----------------I----------------I


ENDING
N.C.
--------I
--------I
13------I
12------I random noise
11------I
--------I

*  *  *  *  *  *  *  *  *  *  *  *  *  *  *  *  *  *  *  *  *  *  *  *  *  *  *  *
			SCENTLESS APPRENTICE

DROP-D TUNING Dropped down ˝step

INTRO/CHORUS
0--0--1--1--2-2-2-2-3-/I
0--0--0--0--0-0-0-0-0--I
0--0--0--0--0-0-0-0-0--I
-----------------------I
-----------------------I
-----------------------I
w/echo effect

MAIN RIFF
----------------------------I
----------------------------I
----------------------------I
4--4--X-4--0-4-4-4-4-X-4--0-I
4--4--X-4--0-4-4-4-4-X-4--0-I
4--4--X-4--0-4-4-4-4-X-4--0-I
w/echo effect OFF

bend and pick troughout the bar
VERSE BEND
----------------------------------I
----------------------------------I
8gb9==8=8=8=8=8=8=8=8=8=8=8=8=8-0-I
--------------------------------0-I
--------------------------------0-I
----------------------------------I
w/echo effect

PRE-CHORUS
------------------------------I-------------------------------I
------------------------------I-------------------------------I
------------------------------I-------------------------------I
------------------------------I-------------------------------I
3-3-3-3-3--3-3-3/5-5-5-5--5-5-I-5/7-7-7-7--7-7-7/8-8-8-8--8-8-I
------------------------------I-------------------------------I
w/echo effect

----------------------------------------------I-----------------------------------------I
----------------------------------------------I-----------------------0-0-0-0-0-0-0-0-0-I
----------------------------------------------I-----------------------0-0-0-0-0-0-0-0-0-I
----------------------------------------------I-----------------------0-0-0-0-0-0-0-0-0-I
-8/10-10-10-10--10-10-10/12-12-12-12/15-15-15-I-15\12-12-12-12--12-12-0-0-0-0-0-0-0-0-0-I
----------------------------------------------I-----------------------------------------I

the solo is just improvised noise. Do bends high up the neck on the low and high strings.
And use some kind of effect on it, like a Short delay with high feedback(like Kurt did)
or a floored flanger.


*  *  *  *  *  *  *  *  *  *  *  *  *  *  *  *  *  *  *  *  *  *  *  *  *  *  *
					HEART-SHAPED BOX


DROP-D TUNING ˝step down


INTRO/VERSE
A5      F5       D5	       A5	F5	D7
----------------I-------------I----------------I---------------I
----------------I-------------I----------------I---------------I
----2-----------I-------------I----2-----------I---------------I
--2---2-----3---I------0------I2-2---2-----3---I--/4-4---4----0I
0---------3---3-I--0-------0--I0---------3---3-I-----------3-3-I
--------3-------I0---0---0---0I--------3-------I0------0-------I

LAST TIME BEFORE CHORUS
A5      F5       D5	       A5	F5	D7
----------------I-------------I----------------I---------------I
----------------I-------------I----------------I---------------I
----2-----------I-------------I----2-----------I---------------I
--2---2-----3---I------0------I--2---2-----3---I--4-4-4-4-4---0I
0---------3---3-I--0-------0--I0---------3---3-I------------3-0I
--------3-------I0---0---0---0I--------3-------I0--------------I
						w/dist.



CHORUS
A5      F5       D5	      
----------------I----------------I			
----------------I----------------I			
2-2-4b5-----4b5-I----------*-4b5-I 3 times
2-2-----3-3-----I--4-4-4-4-------I
0-0-----3-3-----I----------3-----I
--------3-3-----I0---------------I
		let ring
		*on Album this is played by second guitar

END OF CHORUS
F5		 D5		    F5		     D7
----------------I------------------I----------------I------------------I
----------------I------------------I----------------I------------------I
----------------I--------4b5=5=5r4-I----------------I---------------0--I
3-3-3-3-3-3-3-3-I-0----------------I3-3-3-3-3-3-3-3-I---4-4-4-4-----0--I
3-3-3-3-3-3-3-3-I-0----------------I3-3-3-3-3-3-3-3-I-----------3-3-0--I
3-3-3-3-3-3-3-3-I-0----------------I3-3-3-3-3-3-3-3-I-0----------------I

SOLO
---------------------------I-------------------I
-----8b10r8\6-----6b8r6\5--I-----5b6-r5-3-1-0--I
---------------------------I-------------------I twice
7-7-----------5-5----------I-3-3---------------I
---------------------------I-------------------I
---------------------------I-------------------I
w/chorus
A5
----------I------------I----------I---------I
----------I------------I----------I---------I
----------I------------I-2--------I---------I
-2--------I------------I-2--------I---------I
-0--------I------------I-0--------I---------I
----------I------------I----------I---------I
	                dist. off          (chorus off for 3rd verse)

ENDING OF LAST CHORUS
F5		 D5		
----------------I------------------I
----------------I------------------I
----------------I--------4b5=5=5r4-I three times
3-3-3-3-3-3-3-3-I-0----------------I
3-3-3-3-3-3-3-3-I-0----------------I
3-3-3-3-3-3-3-3-I-0----------------I

		  rit. (=slower)
F5		  D7
----------------I------------------I
----------------I------------------I
----------------I------------------I
3-3-3-3-3-3-3-3-I---4-4-4-4--------I
3-3-3-3-3-3-3-3-I-----------3-3-3--I
3-3-3-3-3-3-3-3-I-0----------------I


*  *  *  *  *  *  *  *  *  *  *  *  *  *  *  *  *  *  *  *  *  *  *  *  *  *  *  *  *
				RAPE ME

Standard tuning dropped down ˝step

INTRO/CHORUS/2nd&3rd VERSES

A5	   C5   	   E5	      G5
-------------------------I-0---0--0-----------------I
-------------------------I-0---0--0---3-3---3-3-----I
2---2--2---5-5---5-5-0-0-I------------0-0---0-0-0-0-I
2---2--2-0-5-5---5-5-0-0-I-2---2--2-0-0-0---0-0-0-0-I
0---0--0-0-3-3---3-3-0-0-I-2---2--2-0-----------0-0-I
---------0-----------0-0-I-0---0--0-0-3-3---3-3-0-0-I

1ST VERSE
A5    C5      E5    G5  			
-------------I--------------I
-------------I--------------I
---2-----5---I--------------I x3
---2---5-5-0-I---2------5---I 
0---0-3----0-I---2----5-5-0-I
-------------I-0--0-3-----0-I

A5    C5      E5    G5
-------------I--------------I
-------------I------3-3-3-3-I
---2-----5---I------0-0-0-0-I 
---2---5-5-0-I---2--0-0-0-0-I 
0---0-3----0-I---2----------I
-------------I-0--0-3-3-3-3-I
		    w/dist.

BRIDGE
C#5		 A5       G F# F
----------------I-----------------I
----------------I-----------------I
6-6-6-6-6-6-6-6-I-----------------I x4
6-6-6-6-6-6-6-6-I-7-7-7-7-5-4-3---I
4-4-4-4-4-4-4-4-I-7-7-7-7-5-4-3---I
----------------I-5-5-5-5-3-2-1-0-I

F5		  G5		  E5
---------------I-----------------I-----0-----I-----------I
---------------I-----------------I-------0---I-----------I
---------------I-----------------I9----------I-----------I
3--3-3---3-3-3-I-3/5--5-5--5-5-0-I9----------I-----------I
3--3-3---3-3-3-I-3/5--5-5--5-5-0-I7----------I-----------I
1--1-1---1-1-1-I-1/3--3-3--3-3-0-I0----------I-----------I
				  * On album, the doubling guitar plays an open E chord.

OUTRO CHORUS RIFF (another guitar)
A5      C5       E5      G5  
----------------I-----------------I
----------------I-----------------I
2---2-2-5-5-5-7-I-9---9-----------I x4
2---2-2-5-5-5-7-I-9---9-----------I
0---0-0-3-3-3-5-I-7---7-0---5-3-2-I
----------------I-0---0-0-3-------I

*  *  *  *  *  *  *  *  *  *  *  *  *  *  *  *  *  *  *  *  *  *  *  *  *  *  *  *  *
			FRANCES FARMER WILL HAVE HER REVENGE ON SEATTLE 

Standard tuning dropped down ˝step

INTRO/VERSE (on intro play the 3 first bars twice)

 G#5		  E5	   G5	    E5	     G5		B5		
I----------------I-----------------I-----------------I---------------I-----------------I
I----------------I-----------------I-----------------I---------------I-----------------I
I----------------I-----------------I-----------------I-4--4--4-4-4-4-I-4-4-4-4-4-------I
I----------------I-----------------I-----------------I-4--4--4-4-4-4-I-4-4-4-4-4-------I
I6-6-6-6-6-6-6-6-I-2-2-2-2/5-5-5-4-I-2-2-2-2/5-5-5---I-2--2--2-2-2-2-I-2-2-2-2-2-------I
I4-4-4-4-4-4-4-4-I-0-0-0-0/3-3-3-2-I-0-0-0-0/3-3-3-0-I---------------I-----------2-2-3-I
IPM__________________________________________________ w/dist
Iclean
I
I(SECOND GUITAR)						
I----------------I-----------------I-----------------I---------------I-----------------I
I----------------I-----------------I-----------------I---------------I-----------------I
I----------------I-----------------I-----------------I-4--4--4-4-4-4-I-4-4-4-4-4-------I
I----------------I-----------------I-----------------I-4--4--4-4-4-4-I-4-4-4-4-4-------I
I--------------6\I-2-------------4\I2----------------I-2--2--2-2-2-2-I-2-2-2-2-2-------I
I----------------I-----------------I-----------------I---------------I-----------2-2-3-I
 clean						      w/dist	


LAST TIME BEFORE CHORUS:

B5				C5
---------------I-----------------I
---------------I-----------------I
-4--4--4-4-4-4-I-4-4-4-4-4-4-4-5-I
-4--4--4-4-4-4-I-4-4-4-4-4-4-4-5-I
-2--2--2-2-2-2-I-2-2-2-2-2-2-2-3-I
---------------I-----------------I

CHORUS

C#5		E5	D5	  B5				  C5
--------------I-----------------I-----------------I-----------------I
--------------I-----------------I-----------------I-----------------I
6--6--6-6-6-6-I-9-9-9-9-7-7-7-7-I-4---4---4-4-4-4-I-4-4-4-4-4-4-4-5-I
6--6--6-6-6-6-I-9-9-9-9-7-7-7-7-I-4---4---4-4-4-4-I-4-4-4-4-4-4-4-5-I twice
4--4--4-4-4-4-I-7-7-7-7-5-5-5-5-I-2---2---2-2-2-2-I-2-2-2-2-2-2-2-3-I
4--4--4-4-4-4-I-7-7-7-7-5-5-5-5-I-2---2---2-2-2-2-I-2-2-2-2-2-2-2-3-I

C#5		E5		 B		   A	
--------------I-----------------I-----------------I-----------------I
--------------I-----------------I-------4---------I----2------------I
6--6--6-6-6-6-I-9-9-9-9-7-7-7-7-I-4---------4-----I2---------2------I
6--6--6-6-6-6-I-9-9-9-9-7-7-7-7-I-4-------------4-I2-----------2----I
4--4--4-4-4-4-I-7-7-7-7-5-5-5-5-I-2---------------I0----------------I
4--4--4-4-4-4-I-7-7-7-7-5-5-5-5-I-----------------I-----------------I
				 let ring
B		  A		    G5		     F#5	   G5
-----------------I-----------------I3-3-3-3-3-3-3-3-I----------------I
-------4---------I----2------------I0-0-0-0-0-0-0-0-I----------------I
-4---------4-----I2---------2------I0-0-0-0-0-0-0-0-I----------------I
-4-------------4-I2-------------2--I0-0-0-0-0-0-0-0-I4-4-4-4-4-4-4-5-I
-2---------------I0----------------I----------------I4-4-4-4-4-4-4-5-I
-----------------I-----------------I3-3-3-3-3-3-3-3-I2-2-2-2-2-2-2-3-I
						     PM______________
THE F#5 ENDING OF 2ND CHORUS
-----------I
-----------I
-----------I
4-4-4-4----I
4-4-4-4----I
2-2-2-2----I
PM______

[ Tab from: http://www.guitartabs.cc/tabs/n/nirvana/in_utero_tab_ver_2.html ]
INTERLUDE
G#5	  E5	    
-------------I-------------I
-------------I-------------I
-------------I---9-9---9---I 3 times
6--6--6--6-2-I-2/9-9---9-0-I
6--6--6--6-2-I-2/7-7---7-0-I
4--4--4--4-0-I-0---------0-I

C#5
--------------I------------------------I
--------------I------------------------I
6--6--6-6-6-6-I----6--6--6--6----------I
6--6--6-6-6-6-I------------------------I
4--4--4-4-4-4-I---4b5=5==5==5r4--2--0--I
--------------I------------------------I

Play the entire INTERLUDE RIFF 3 times and then:

B		  A		    G5		     F#5	   G5
-----------------I-----------------I3-3-3-3-3-3-3-3-I----------------I
-------4---------I----2------------I0-0-0-0-0-0-0-0-I----------------I
-4---------4-----I2---------2------I0-0-0-0-0-0-0-0-I----------------I
-4-------------4-I2-------------2--I0-0-0-0-0-0-0-0-I4-4-4-4-4-4-4-5-I
-2---------------I0----------------I----------------I4-4-4-4-4-4-4-5-I
-----------------I-----------------I3-3-3-3-3-3-3-3-I2-2-2-2-2-2-2-3-I
 						     PM______________


*  *  *  *  *  *  *  *  *  *  *  *  *  *  *  *  *  *  *  *  *  *  *  *  *  *  *  *
					DUMB

Standard tuning dropped down ˝step

VERSE

Esus4  A5	Gsus4 C5 
--------------I----------------I
--------------I----------------I
---2------2---I----5-------5---I
---2----2-2---I----5-----5-5-0-I
2--2-2-0------I-5--5---3-----0-I
0----0------0-I-3----0---------I
PM   PM__   PM___    PM___   


CHORUS

E5		 G
0-----0---0-0---I3------3---3-3---I
0-----0---0-0---I0------0---0-0-0-I
--------------0-I0------0---0-0-0-I
2-----2---2-2-0-I0------0---0-0-0-I
2---2-2---2-2-0-I-----------------I
0---0-0---0-0-0-I-3---3-3---3-3-0-I
let ring

CHORUS(LAST TIME)

E		 G
0-----0---0-0---I3------3----------I
0-----0---0-0---I0------0----------I
--------------0-I0------0----------I
2-----2---2-2-0-I0------0----------I
2---2-2---2-2-0-I------------------I
0---0-0---0-0-0-I-3---3-3---3/7-7-\I
let ring

BRIDGE

B		C
--------------I---------------I
4--4-4--4-4---I-5--5-5--5-5---I
4--4-4--4-4-0-I-5--5-5--5-5-0-I
4--4-4--4-4-0-I-5--5-5--5-5-0-I
2--2-2--2-2-0-I-3--3-3--3-3-0-I
------------0-I-------------0-I

BRIDGE(LAST TIME)

B		C
--------------I----------I
4--4-4--4-4---I-5--------I
4--4-4--4-4-0-I-5--------I
4--4-4--4-4-0-I-5--------I
2--2-2--2-2-0-I-3--------I
------------0-I----------I

OUTRO
E5	A5	G5	C5	
--------------I----------------I
--------------I----------------I
-------2--2-0-I--------5-5-5---I
2--2-0-2--2-0-I-5--5-5-5-5-5-0-I
2--2-0-0--0-0-I-5--5-5-3-3-3-0-I
0--0-0------0-I-3--3-3-------0-I


*  *  *  *  *  *  *  *  *  *  *  *  *  *  *  *  *  *  *  *  *  *  *  *  *  *  *  *  *
						VERY APE 

OK, This is probably the only Nirvana song that needs 2 guitars,
so it's tabbed for 2 guitars. 
The first tab section is for the rhythm guitar:

 Standard tuning dropped down ˝step

     MAIN RIFF(the very first offbeat note isn't included)

G5   A5    G5A#5    G5 
--III-----------------III
--III-----------------III
--III-----------------III
5/III-7-7-X-5/8-8-X-5/III
5/III-7-7-X-5/8-8-X-5/III
3/III-5-5-X-3/6-6-X-3/III

VERSE ENDING:
(Verse includes first 5 times of main riff)

(last time of main riff is a bit different)

 A5    G5A#5    
I----------------I
I----------------I
I----------------I
I-7-7-X-5/8-8-8-0I
I-7-7-X-5/8-8-8-0I
I-5-5-X-3/6-6-6-0I

 G5		F5     G#5A5G#G	
I--------------I---------------I
I--------------I---------------I
I--------------I---------------I
I5--5-5--5-5-5-I3-3-3-3-8-7-6-5I
I5--5-5--5-5-5-I3-3-3-3-8-7-6-5I
I3--3-3--3-3-3-I1-1-1-1-6-5-4-3I


VARIATION OF MAIN RIFF BEFORE CHORUS

 A5	G5A#5   G5
I-----------------I
I-----------------I
I-----------------I
I-7---7-5/8---8-5/I
I-7---7-5/8---8-5/I
I-5---5-3/6---6-3/I

CHORUS
A5  C5D#5    G5
------------I-----------------I
------------I-----------------I
----5-8--8--I/12--12----------I
7---5-8--8--I/12--12--5-5-5-5-I
7---3-6--6--I/10--10--5-5-5-5-I
5-----------I---------3-3-3-3-I

*************************************************************************************

And then the lead parts:

MAIN RIFF

-------------------I
-------------------I
14---12-14/15---12-I
-------------------I
-------------------I
-------------------I

MAIN RIFF VARIATION

15---13-15/16---13-I
-------------------I
-------------------I
-------------------I
-------------------I
-------------------I

CHORUS
---------------I------------------------I
-----13-16--16-I-16h/20-20-\------------I
14-------------I------------12-12-12-12-I
---------------I------------------------I
---------------I------------------------I
---------------I------------------------I

*  *  *  *  *  *  *  *  *  *  *  *  *  *  *  *  *  *  *  *  *  *  *  *  *  *  *  *
					MILK IT  

Standard tuning dropped down ˝step

The song starts with two guitars playing improvised licks on the high strings
and quite high on the neck. No need for tabbing...but remember that even that
improvised lick has a certain rhythm. Listen to it carefully. The same applies
for the "Guitar solo". 


CHORUS/INTRO 

A#5  E5	  G5   		G#5   E    A#5  E5   G5   			
----------------I-----------------I----------------I-----------------I
----------------I-----------------I----------------I-----------------I
------9-9-------I-----------------I------9-9-------I-----------------I twice
8-8-8-9-9-5-5---I-5-5-5-6-6---2---I8-8-8-9-9-5-5---I-5---------------I
8-8-8-7-7-5-5---I-5-5-5-6-6---2-0-I8-8-8-7-7-5-5---I-5---------------I
6-6-6-----3-3-0-I-3-3-3-4-4-0-0-0-I6-6-6-----3-3-0-I-3---------------I

A#5  E5	  G5     N.C.
----------------I----------------I
----------------I----------------I
------9-9-------I----------------I
8-8-8-9-9-5-5---I----------------I
8-8-8-7-7-5-5---I----------------I
6-6-6-----3-3-0-I-3--3-4-4b-0-0-0I


CHORUS("Look on the bright side...") 
----------------I-----------------I
----------------I-----------------I
------9-9-------I-----------------I
8-8-8-9-9-5-5---I-5-5-5-6-6---2---I
8-8-8-7-7-5-5---I-5-5-5-6-6---2-0-I
6-6-6-----3-3-0-I-3-3-3-4-4-0-0-0-I

PRE-VERSE RIFF
----------------I-------------3---I
----------------I-----------------I
----------------I----------3------I
----------------I-----------------I
----------------I-----------------I
6-6-6-6-6-6-6-6-I-0-0-0-0---------I

VERSE (watch out for the offbeat drumming)
----------------I-----------------I
----------------I-----------------I
----------------I-----------------I
----------------I-----------------I
----------------I-----------------I
6-6-6-6-6-6-6-6-I-0-0-0-0-0-0-0-0-I


*  *  *  *  *  *  *  *  *  *  *  *  *  *  *  *  *  *  *  *  *  *  *  *  *  *  *  *
				PENNYROYAL TEA
Standard tuning dropped down ˝step

VERSE
Am				G
0----0----0---I-0----0----0---I------3----3---I------3---------I
1--1-1--1-1-1-I-1--1-1--1-1---I-0--0-0--0-0-0-I-0--0-0---------I
2--2-2--2-2-2-I-2--2-2--2-2-0-I-0--0-0--0-0-0-I-0--0-0---------I
2--2-2--2-2-2-I-2--2-2--2-2-0-I-0--0-0--0-0-0-I-0--0-0---------I
0--0-0--0-0-0-I-0--0-0--0-0-0-I---------------I----------------I
--------------I---------------I-3--3-3--3-3-3-I-3--3-3-3-2-3-0-I
Let ring

Am				G
0----0----0---I-0----0----0---I------3----3---I-----------------I
1--1-1--1-1-1-I-1--1-1--1-1---I-0--0-0--0-0-0-I-----------------I
2--2-2--2-2-2-I-2--2-2--2-2-0-I-0--0-0--0-0-0-I----0-0-0-0-0-0-0I
2--2-2--2-2-2-I-2--2-2--2-2-0-I-0--0-0--0-0-0-I----0-0-0-0-0-0-0I
0--0-0--0-0-0-I-0--0-0--0-0-0-I---------------I-----------------I
--------------I---------------I-3--3-3--3-3-3-I-3-3-3-3-3-3-3-0-I
							w/dist.


CHORUS

C		D		  A#	
---------------I----------------I-----------------I-----------------I
5--5-5-5-5-5-5-I/7--7-7-7-7-7-0-I-----------------I-----------------I
5--5-5-5-5-5-5-I/7--7-7-7-7-7-0-I-3-3-3-3-3-3-3-3-I-3-3-3-3-3-3-3-0-I
5--5-5-5-5-5-5-I/7--7-7-7-7-7-0-I-3-3-3-3-3-3-3-3-I-3-3-3-3-3-3-3-0-I
3--3-3-3-3-3-3-I/5--5-5-5-5-5-0-I-1-1-1-1-1-1-1-1-I-1-1-1-1-1-1-1-0-I
---------------I--------------0-I-----------------I-----------------I


INTERLUDE

A5						G
-----------------------I----------------------I---3--3--I3-2-0-----------I
-----------------------I----------------------I---0--0--I------3-2-0-----I
2--0-2b4--r2p0-2b4r2p0-I2--0-2b4--r2p0-2b4r2p0I0--0--0--I------------3-0-I
2----------------------I2---------------------I0--0--0--I----------------I twice
0----------------------I0---------------------I---------I----------------I
-----------------------I----------------------I3--3--3--I----------------I

then repeat the chorus riff twice.


Outro

Am
0--0-I
1--1-I
2--2-I
2--2-I
0--0-I
-----I
*  *  *  *  *  *  *  *  *  *  *  *  *  *  *  *  *  *  *  *  *  *  *  *  *  *  *  *
				RADIO FRIENDLY UNIT SHIFTER

Standard tuning dropped down ˝step

INTRO
----I-------I-12-----I--------I-12------I-------I-12-----I-0---I
10--I--11---I--------I-11-----I---------I-11----I--------I-0---I
----I-------I--------I--------I---------I-------I--------I-----I
----I-------I--------I--------I---------I-------I--------I-----I
----I-------I--------I--------I---------I-------I--------I-----I
w/Poly chorus vibrato pedal				       (poly chorus off)

after the drums come in, only muffled strings and feedback is played so
I don't mind tabbing it.

MAIN RIFF/CHORUS(guitar 2 seems to play this with palm muting troughout on Album)
A5  C5    G5     B5    F#5
----------------I----------------I
----------------I----------------I
----5-5-------0-I4-4-------------I
7-7-5-5-X-5-5-0-I4-4-X-4-4-------I
7-7-3-3-X-5-5-0-I2-2-X-4-4-------I
5-5-----X-3-3-0-I----X-2-2-0-2-0-I

VERSE (heavily improvised, only most important chords are shown)
A5
-----I----I----I----I----I----I----I----I8----I----I----I----I8----I----I----I----I
-----I----I----I----I-5--I----I----I----I8----I----I----I----I8----I----I----I----I
2----I----I----I----I-5--I----I----I----IX----I----I----I----I8----I----I----I----I
2----I----I----I----I-5--I----I----I----I7----I----I----I----I7----I----I----I----I
0----I----I----I----I-0--I----I----I----I-----I----I----I----I-----I----I----I----I
-----I----I----I----I----I----I----I----I-----I----I----I----I-----I----I----I----I
					Polychorus on

BRIDGE
C5		 E5		   A5		     G5		
----------------I-----------------I-----------------I-----------------I
----------------I-----------------I-----------------I-----------------I
5-5-5-5-5-5-5-5-I/9-9-9-9-9-9-9-0-I-2-2-2-2-2-2-2-0-I-----------------I
5-5-5-5-5-5-5-5-I/9-9-9-9-9-9-9-0-I-2-2-2-2-2-2-2-0-I-5-5-5-5-5-5-5-0-I 3˝ times
3-3-3-3-3-3-3-3-I/7-7-7-7-7-7-7-0-I-0-0-0-0-0-0-0-0-I-5-5-5-5-5-5-5-0-I
----------------I-----------------I-----------------I-3-3-3-3-3-3-3-0-I


That's it mainly. The outro is just noise (first there's silence for few bars and
then there's the feedback and noise things like tuning down the guitar etc)


*  *  *  *  *  *  *  *  *  *  *  *  *  *  *  *  *  *  *  *  *  *  *  *  *  *  *  *
					TOURETTE'S

Standard tuning dropped down ˝step

INTRO/VERSES

F#5	A#5	 B5	  G5
----------------I-----------------I
----------------I-----------------I
--------3-3-3-3-I-4-4-4-4---------I
4-4-4-4-3-3-3-3-I-4-4-4-4-5-5-5-5-I
4-4-4-4-1-1-1-1-I-2-2-2-2-5-5-5-5-I
2-2-2-2---------I---------3-3-3-3-I

CHORUS
F#5
------------------I
------------------I
---4h5p4-4--5p4p0-I
4-----------------I
4-----------------I
2-----------------I
*  *  *  *  *  *  *  *  *  *  *  *  *  *  *  *  *  *  *  *  *  *  *  *  *  *  *  *  *
					ALL APOLOGIES 

DROP-D TUNING Dropped down ˝step

INTRO/VERSES/OUTRO

D
---------------------I---------------------I---------------------I---------------------I
---------------------I---------------------I---------------------I---------------------I
---------------------I---------------------I---------------------I----------11-11-9----I
---------------------I---------/12-12-10-9-I---------------------I-------------0----12-I
9-9-10-9-/12-12-10-9-I-9-9-10-9------------I9-9-10-9-/12-12-10-9-I-9-9-10-9------------I
0--------------------I-0-0-0--0------------I0------0--0----------I-0-0-0--0------------I


CHORUS
G5
--------------I
--------------I
--------------I
5-5-5-5-5-5-5-I
5-5-5-5-5-5-5-I
5-5-5-5-5-5-5-I


POSTCHORUS
A
--I
2-I
2-I
2-I
0-I
--I

*  *  *  *  *  *  *  *  *  *  *  *  *  *  *  *  *  *  *  *  *  *  *  *  *  *  *  *
			GALLONS OF RUBBING ALCOHOL FLOW TROUGH THE STRIP


Tuning:Standard ˝step down

There's a quiet, overdubbed guitar playing improvised lines under everything (also
under verses). I didn't even consider trying to tab them...the whole song is pretty
much an improvised jam, the choruses are different and Kurt plays the bridge riff
first differently than the 3 other repeats.  


MAIN RIFF

C6      G/F#
-------------------I
--------------3----I
----2------0-----0-I
----------(0)*-----I
3-----3------------I
--------2----------I
	     *Occasionally Kurt picks the D-string


INTRO "SCREW UP"
C6      G/F#
-------------------I
--------------0----I
----X------0-----0-I
-------------------I
3-----3------------I
--------2----------I

VERSE(ONLY BASS AND DRUMS)

1ST CHORUS
------I-------I------I-------I------I------I------I-------I
8-----I----8-8I8-----I-------I7-----I6-----I5-----I-------I
7-----I----7-7I7-----I-------I6-----I5-----I4-----I-------I
7-----I----7-7I7-----I-------I6-----I5-----I4-----I-------I
------I-------I0-----I-------I------I------I------I-------I
------I-------I------I-------I------I------I------I-------I

2ND CHORUS

------I-------I------I-------I
7-----I-------I7-----I-------I
6-----I-------I6-----I-------I
6-----I-------I6-----I-------I
------I-------I------I-------I
------I-------I------I-------I

BRIDGE
C		B	A#
--------------I-----------------I
5--5--5-5-5-5-I-4-4-4-4-3-3-3-3-I
5--5--5-5-5-5-I-4-4-4-4-3-3-3-3-I
5--5--5-5-5-5-I-4-4-4-4-3-3-3-3-I
3--3--3-3-3-3-I-2-2-2-2-1-1-1-1-I
--------------I-----------------I

C     B	 	A#
--------------I-----------------I
5--5--4-4---4-I-3-3-3-3-3-3-3-3-I
5--5--4-4---4-I-3-3-3-3-3-3-3-3-I 3 times
5--5--4-4---4-I-3-3-3-3-3-3-3-3-I
3--3--2-2---2-I-1-1-1-1-1-1-1-1-I
--------------I-----------------I


SOLOS

Pretty much anti-solos. Kurt used his Echo Flanger pedal set to a short echo to create 
sharp sound for the rest of the song. Use "noise fingering" (see guide to anti-solos) and
slide it up and down on different strings. 

4th VERSE (A part of it...)
------------I
7-7-7-7-----I
6-6-6-6-----I
5-5-5-5-----I
------------I
------------I
Comments