Nirvana - In Utero Chords & Tabs

 

In Utero Chords & Tabs

Nirvana Chords & Tabs

Version: 1 Type: Bass Tab 0 ratings
1 star 2 stars 3 stars 4 stars 5 stars
comments

In Utero Bass Tab

   
#----------------------------------PLEASE NOTE---------------------------------#
#This file is the author's own work and represents their interpretation of the #
#song. You may only use this file for private study, scholarship, or research. #
#------------------------------------------------------------------------------#
#
From: Rooptroop@aol.com
Date: Sun, 14 Jan 1996 20:13:33 -0500
Subject: IN UTERO BTAB BY NIRVANA

Okay hey yall it's RoOpTrOoP again with the second Album bass tab on here
so I'm not gonna put the Lyrics this time if you wan'em get 'em yourself

Songs
Serve the Servants Eb
Scentless Apprentice Db
Heart Shaped Box Db
Rape Me Eb
Francis Farmer will have her revenge on Seattle Eb
Dumb (without fills) Eb
Very Ape Eb
Milk It Eb
Pennyroyal Tea Eb
Radio Friendly Unit Shifter Eb
Tourettes Eb
All Apologies Db




Serve the Servants

VERSE:



  F#5 F#sus2  E
g|---------------1--
d--------------------
a--------------------
e|--2---2----0------
        ...old.


CHORUS:

G|-----------------------------------------------|
D|--------------------------------------------------|
A|---7--7--7--7---7---7---4--4--4--4---4---6-----|
E|---5--5--5--5---5---5--------------------------|
                serve the servants....

BRIDGE:

G
D
A|----------------------------------/-3--3--3--3--3--3----
E|--2--2--2--2--2--2--2--2--2------------------------|--0----|
_________________________________________________________________---

Scentless Apprentice

Verse

G
D
A
D-4-4-0-4-0-4-4-4-4-0-4

Chorus

G
D
A
D-0--0-0-0--2--2-2-2--3--3-3-3

_______________________________________________________________________

Heart Shaped Box

I got this from
"Marino M. Regalado" 

"Heart Shaped Box" by Nirvana
Bass Tab

"Dropped D" + 1/2 step down  (Db,Ab,Db,Gb)

     Rest 4 measures    1st,2nd,3rd verses
                          A           F5
G:-----|----|----|----||--------------------------|
D:4----|----|----|----||o-------------------------|
A:4----|----|----|----||o-------------------------|
D:-----|----|----|----||--7--7--7--7\-3--3--3--3/-|
                          She eyes me...
                          I've been drawn...



   D5                               A            F5
G:---------------------------------|-------------------------|
D:---------------------------------|-------------------------|
A:---------5-------5-------5-------|-------------------------|
D:-0--------------------------(5)/-|-7--7--7--7\-3--3--3--3/-|





   D7                                A           F5
G:---------------------------------|-------------------------|
D:---------------------------------|-------------------------|
A:---------5-------5-------5-------|-------------------------|
D:-0--------------------------(5)/-|-7--7--7--7\-3--3--3--3/-|





   D5                                A           F5
G:---------------------------------|-------------------------|
D:---------------------------------|-------------------------|
A:---------5-------5-------5-------|-------------------------|
D:-0--------------------------(5)/-|-7--7--7--7\-3--3--3--3/-|



   _____________________________   ____________________________
  / 1.                            / 2.
   D7                              D7 
G:------------------------------||------------------------------||
D:-----------------------------o||------------------------------||
A:---------5-----5-------------o||---------5-------5--5--5------||
D:-0----------7-----7-------5/--||-0---/--------------------7-7-||



  Chorus

    A5          F5              D7
G:----------------------------|-----------------------------|
D:o---------------------------|-----------------------------|
A:o------8b(9)--------3b(4)b3-|---------5-------5\----3-----|
D:--7--7--------3--3----------|-0-0-0-0------------5-----5--|

         Hey           Wait...

                                   ____________________________
                                 / 1.,2.
   A5             F5              D7
G:------------------------------|------------------------------||
D:------------------------------|-----------------------------o||
A:-------8b(9)b8--------3b(4)b3-|--------5--5-5-5-5-5-5-5-----o||
D:-7--7-----------3--3----------|-0--0-0-------------------5---||



   ________________________
  / 3.
   D7                         F                          D7
G:--------------------------|--------------------------|----------------|
D:--------------------------|--------------------------|-------7--------|
A:--------5-----5--5--5--5--|--------------------------|-------5--------|
D:-0--0-0----0--------------|-3--3--3--3--3--3--3/-----|-0--------------|





   F
G:--------------------------|----------------|
D:--------------------------|-------7--------|
A:--------------------------|-------5--------|
D:-3--3--3--3--3--3--3--/---|-0--------------|


Now repeat the verses again for verse 2, but instead of taking the chorus
again, play this:

     (Repeat 3 times)
      A5             F5               D7
G:||--------------------------------|----------------------------|
D:||o-------------------------------|----------------------------|
A:||o-------8b(9)b8--------3b(4)b3--|---------5------5\----3-----|
D:||--7--7-----------3--3-----------|-0-0-0-0-----------5-----5--|

            Hey            Wait...



   A5             F5               D7
G:-------------------------------|-----------------------------||
D:-------------------------------|----------------------------o||
A:-------8b(9)b8--------3b(4)b3--|---------5------5\----3-----o||
D:-5--5-----------3--3-----------|-0-0-0-0-----------5-----5---||





    F                          D7
G:---------------------------|-----------------------|||
D:o--------------------------|-7--------------------o|||
A:o--------------------------|-5--------------------o|||
D:--3--3--3--3--3--3--3-/----|-0---------------------|||



Guitar solo time!  During this part, play the first four bars of the chorus,
then end with this:

   A           F5            D5                  A           F5
G:-------------------------|-------------------|-------------------------|
D:-------------------------|----0--------------|-------------------------|
A:-------------------------|-0-----------------|-------------------------|
D:-7--7--7--7\-3--3--3--3/-|----------------5/-|-7--7--7--7\-3--3--3--3--|






G:-------------------------||
D:-0-----0-----0-----0-----||
A:----0-----0-----0-----0--||
D:-------------------------||


Near the end already!  Now just go back and play verse 3, then play the
chorus as written, but on
the third repeat of the chorus play only the first three bars (don't play the
3rd ending!!)  Instead,
jump to the following and play to the end:

                              (play 3 times)
   D7                           F                          D7
G:--------------------------||---------------------------|------------------|
D:--------------------------||o--------------------------|-------7---------o|
A:--------5--5--5--5--5-----||o--------------------------|-------5---------o|
D:-0--0-0----------------5--||--3--3--3--3--3--3--3--/---|-0----------------|





    F5                         D7
G:|--------------------------|---------------|||
D:|--------------------------|---------------|||
A:|--------------------------|---------------|||
D:|-3--3--3--3--3--3--3------|-0-------------|||

Thanks Marino

_____________________________________________________________________-
Rape Me

HERE'S THE VERSE
DON'T COME IN UNTIL GUITAR HIT'S DISTORTION

G
D
A-0--0--0-0-0-3-3-3
E------------------------0--0--0-0-0-3-3-3

CHORUS
G-1-1--4-4-----------------------------------
D----------1-1--4-4--------------------------
A--------------------------------------------
E--------------------------------------------
_______________________________________________________________________
Francis Farmer will have her revenge on Seattle

Try this okay if it's not right who gives a flying fuck

Come in with Lyrics

  ------------------------------------------------------
  ------------------------------------------------
  ------------------------------------------------
  --2---2----2--2----2--2------2--2---------------

------------------------------------------------
-------------------------------------------------
--------------------------------------------------
 --------------------------2----2----3/----------


  ------------------------------------------------
  ------------------------------------------------
  ------------------------------------------------
  -/4--4--4--4--4--4--4--4----0--0--0--0----------

  ------------------------------------------------
  ------------------------------------------------
  ------------------------------------------------
  -/3--3--3--3----0--0--0--0--/3--3--3--0---------


  ------------------------------------------------
  ------------------------------------------------
  ------------------------------------------------
  -/4--4--4--4--4--4--4--4----0--0--0--0----------


  ------------------------------------------------
  ------------------------------------------------
  ------------------------------------------------
  -/3--3--3--3----0--0--0--0--/3--3--3--0---------

  ------------------------------------------------------
  ------------------------------------------------
  ------------------------------------------------
  --2---2----2--2----2--2------2--2---------------

------------------------------------------------
-------------------------------------------------
--------------------------------------------------
 --------------------------2----2----3/----------



  ------------------------------------------------
  ------------------------------------------------
  ----------------------------------------------
  --3--3--4--4---x-------4--4--4------------------


-------------------------------------------------------------
---------------------------------------------------------
---------------------------------------0-------------
-----3---3--------3---------x---3------------------

  ------------------------------------------------
  ------------------------------------------------
  --2---2----2--2----2--2------2--2---------------
  ------------------------------------------------


  ------------------------------------------------
  ------------------------------------------------
  --2-----2--2------2---2---------------------
  --------------------------2----2----3/----------

  ------------------------------------------------
  ------------------------------------------------
  --------------------------------------7----7\--------
  --4---4----4--4---4-------/7----------------7\--------

  ------------------------------------------------
  ------------------------------------------------
------------0------------2---2---2---------------
  --5---5-------2---2--------------2-----2--------

  ------------------------------------------------
  ------------------------------------------------
  ---------------------------------------------------------
  --2---2--2--2--2--2--3--------------------------

  ------------------------------------------------
  ------------------------------------------------
  -------------------------------------------------------
  --4---4----4--4---4-------/7----------7\--------

  ------------------------------------------------
  ------------------------------------------------
  -----------0-------------0---0---0-------------------
  --5---5-------2---2--------------2-----2--------
[ Tab from: http://www.guitartabs.cc/tabs/n/nirvana/in_utero_btab.html ]
   ------------------------------------------------
   ------------------------------------------------
   ------------------------------------------------------
   --2---2--2--2--2--2--3--------------------------

   ------------------------------------------------
   ------------------------------------------------
   -----------------------------------------------------
  --4---4----4--4---4-------/7----------7\--------

  ------------------------------------------------
  -------------------------------------------------
  -----2---2--2---2--2--2------------------------
  --5---5-------2---2-----------------------------

  ----------------------------------------------------------
  ------------------------------------------------
  --0--------------0--1---2--2--2---2---1--------------
  ------------------------------------------------


  ----------------------------------------------------
  ------------------------------------------------
  ----0-0-0-0-0-0-------0----------
  -------------------0-0-0--3-0-0-0-0-0-0-3---3---

  ------------------------------------------------
  ------------------------------------------------
  ------------------------------------------------------
  --2--2--2--2--2--2--2--3------------------------

  ------------------------------------------------
  ------------------------------------------------
  -------------------0h1----------------------
  --2--2--2--2------------------------------------

  Interlude
  ------------------------------------------------
  ---------------------------------------------------
  ----------------/7--7--7---7----0------------------
  --4---4----0------------------------------------

  -------------------------------------------------------------
  ------------------------------------------------
  -------------------/7--7--7---7----0------------------
  --4---4----0------------------------------------

 -------------------------------------------------------------
 ---------------------------------------------------------------
  --4---4---4--4--4--4---4---5--5--5----5--4-2p0--
  ------------------------------------------------

  -----------------------------------------------------------------------
  --------------------------------3----------------------2p0---------
  --2---2--2--2--2--2-2-2-2----2-2-2-2--0------------------------
  ------------------------------------------------

 -------------------------------------------------
  ---------------------------------------------
  ---------------------------------------------------------
  --3---------------3------2--2--2--2--2--2--2--3-



  And you finish with this.-
  ------------------------------------------------
  ------------------------------------------------
  ------------------------------------------------
  --4------4------------------------------------

That's pretty much it you need to put the notes where they belong I used the
guitar part
as a base for this so if you don't know what goes where or what just get that
and use it
________________________________________________________________________

Dumb


VERSE
-----------------------|----------------------|
-----------------------|----------------------|
-----------------333-0|----------------333-0|
--00-555-0-33-------|--00-555-0-33-------|

CHORUS                        x4
-------------|-------------|
-------------|-------------|
-------------|-------------|
--0-00-000-|--3-33-333-|

MIDDLE                     x3
------------------------|-------------|
------------------------|-------------|
-2-22-222-|-3-33-333-|-22222--3-|
------------------------| ------------|

Back To verse

_________________________________________________________________________

Very Ape

Verse

G
D
A
E--3/5--5--3/6--6--3/5--5--3/6--6

G
D
A
E--3/5--5--3/6--6---3/5--5-5--3/6--6

Chorus

G
D
A---------3/6--6-6-6-6/10-10
E--5--5----------------------------3-2-2/5

End with this

E -5--5

______________________________________________________________________

Milk It

VERSE

G
D
A-1--4-
E---------3---0--3--3--4-0--0--0


CHORUS

G
D
A--1---4
E---------3------0--3

_______________________________________________________________________-

Pennyroyal Tea

VERSE

G
D
A-0--0-0--0-0-0--0--0-0--0-0
E-------------------------------------3--3--3-3-3--3--3--3-3-3

CHORUS

G
D
A-3--3-3-3-3-3/5--5-5--5-5--1--1-1-1--1-1-0-1-0-1
E

________________________________________________________________--______--

Radio Friendly Unit Shifter

VERSE

G o---------------------------------
D o---------------------------------
A o-0-0-3---2-------2-2-2-----------
E o-----------3-3-3-------2-2-2-2-0-

Bridge:   (simplified, play some other notes to spice up)
G o-----------------------------------------------------------------
D o-----------------2-2-2-2-2-2-2-2---------------------------------
A o-3-3-3-3-3-3-3-3-----------------0-0-0-0-0-0-0-0-3-3-3-3-3-3-3-3-
E o-----------------------------------------------------------------

________________________________________________________________________

TOURETTES
FASTEST SONG ON HERE 4 NOTES

G
D
A
E-3-3-3-3-5-5-5-5-6-6-6-6-2-2-2-2

HEY PART

G
D
A
E-2--------2-------2------2

REPEAT
_____________________________________________________________________----

ALL APOLOGIES

I GOT THIS FROM
From: "Marino M. Regalado" 

Dropped D + 1/2 step down tuning (Db,Ab,Db,Gb)

      Rest 3 measures
G:------|-----|-----|-----------7---|-------------------|-----------------|
D:4-----|-----|-----|---------------|-------------------|-----------------|
A:4-----|-----|-----|---------------|-5-----5---5-5-5-5-|-5-----5-----5---|
D:------|-----|-----|---------------|-------------------|-----------------|


                        Verses
                        _______________________________
                       /Rhythm Fig. 1                  \
                        D                           D7
G:---------|---------||-----------------|-----------7---||
D:---o-/---|---o-/---||-----------------|---------------||
A:----/-o--|----/-o--||-5-----5---------|-5-----5-------||
D:---------|---------||-----------------|---------------||
                        What else...

Play Rhythm Fig 1 a total of 8 times for the whole verse.


   Chorus


G:-------------------|-------------------|-----------------|
D:-------------------|-------------------|-----------------|
A:-------------------|-------------------|-----------------|
D:-5p(3)-5---5-3---3-|-5p(3)-5-5-5-2-3-3-|-5---5-5---3-5-5-|
             In the sun...





G:-----------------|----------------|-------------------|
D:-----------------|----------------|-------------------|
A:-----------------|----------------|-------------------|
D:-5-3-5-3-5-2-3---|5---5---5-2-3-3-|-5-3-5-3-5p(2)-3-5-|






G:---________________---------------|--_________________----------------||
D:--/--------------|-\--------------|-/---------------|-\---------------||
A:-0---------------|(0)-------------|-0---------------|(0)--------------||
D:-----------------|----------------|-----------------|-----------------||

Easy so far!  Now just repeat back to the verses for verse 2 (Rhythm Fig 1
eight times).  Then
play the chorus.  Finally, play the outro:

                                        _________________________________
  Outro                                / Rhythm Fig.2                    \

G:-----------------|------------------|-----------------|-----------------|
D:-----------------|------------------|-----------------|-----------------|
A:-5-5---5---5-7---|-5------5---5-7---|-5-5---5---5-7---|-5-5---5----5-7--|
D:---------------7-|----------------7-|---------------7-|----------------7|
   All in all...



    Play Rhythm Fig 2 eight more times

G:-------------------------------------||
D:-------------------------------------||
A:-------------------------------------||
D:-------------------------------------||



                                          _______________
                                         / Rhythm Fig 3  \

G:||------------------|------------------||-----------------|
D:||o---________________----------------o||-----------------|
A:||o--/--------------|-\---------------o||-5-5---5---5---5-|
D:||--0---------------|(0)---------------||-----------------|




   Play Rhytm Fig 3 17 more times, then fade

G:-------------------------------------------|||
D:-------------------------------------------|||
A:-------------------------------------------|||
D:-------------------------------------------|||

THANKS MARINO
__________________________________________________________________________
WELL THAT'S IT THE WHOLE GRANDSPANKING ALBUM OF IN UTERO
I'M PROBABLEY GONNA DO BLEACH NEXT

KURT SHALL LIVE ON FOREVER IN OUR HEARTS,MINDS SOULS AND OF COURSE
STEREOS

KURT WILL NEVER BE FORGOTTEN IN MY MIND'S EYE I HOPE YOURS TOO

PEACE OUT
ROOPTROOP

P.S. I FINALLY GOT HIS SUICIDE NOTE IN IT'S ENTIRITY HERE IT IS

To  Boddah  pronounced

Speaking from the tongue of an experienced simpleton who obviously would
rather be an emasculated, infantile camplainee.  This note should be pretty
easy to understand.  All the warnings from the punk rock 101 courses
over the years.  Since my first introduction to the, shall we say, ethics
involved with independence and the embracement of your community has proven
to be
very true. I haven't felt the exitement of listening to as well as creating
music along with reading and writing for too many years now.  I feel guilty
beyond words about these things.  For example when we're backstage and the
lights go out and the manic roar of the crowd begins it doesn't affect the
way in
which it did for Freddy Mercury who seemed to love. (?) relish in the love
and
adoration from the crowd.  Which is something  I totally admire and
envy. The fact is  I can't fool you.  Any one of you.  It simply isn't fair
to
you or me.  The worst crime I can think of would be to rip people off by
faking it and pretending as if I'm having 100 % fun.  Sometimes I feel as if
I
should have a punch in time clock before I walk out on stage.  I've
tried everything within my power to appreciate it, (and I do. God, believe me
I do but it's not enough.
I appreciate the fact that I and we have affected and entertained a lot
of people.  I must be one of one of those narcissists who only appreciate
things when they're gone. I'm too sensitive.  I need to be slightly numb in
order to regain the enthusiasm I once had as a child.  On our last three
tours
I've had a much better appreciation for all the people I've known personally
and as fans of our music, but I still can't get over the frustration, the
guilt and empathy I have for everyone.  There's good in all of us and I think
I simply love people too much.  So much that it makes me feel too fucking
sad. The sad little, sensitive, unappreciative, pisces, Jesus man!  Why don't
you just enjoy it?  I don't know.  I have a goddess of a wife who sweats
ambition and empathy and a daughter who reminds me too much of what I used to
be.
Full of love and joy kissing every person she meets because everyone is
good and will do her no harm.  And that terrifies me to the point to where I
can barely function.  I can't stand the thought of Frances becoming the
miserable self-destructive, death rocker that I've become.
	
I have it good, very good, and I'm grateful, but since the age of seven I've
become hateful
towards
all humans in general. Only because it seems so easy for people to get
along, and have empathy.  Empathy!  Only because I love and feel for people
too
much I guess. Thank you all from the pit of my burning nauseous stomach for
your letters and concern during the past years.  I'm too much of an erratic,
moody baby! I don't have the passion anymore and so remember, its better to
burn out than to fade away.  peace, love, empathy.
Kurt Cobain

Frances and Courtney, I'll be at your alter.
Please keep going Courtney

For Frances
For her life which will be so much happier without me.   I Love you.
I love you!

Comments