Nirvana - In His Room Chords & Tabs

 

In His Room Chords & Tabs

Nirvana Chords & Tabs

Version: 2 Type: Tab 0 ratings
1 star 2 stars 3 stars 4 stars 5 stars
comments

In His Room Tab

   
In his room
Kurt Cobain

Intro/verse
E|------------------------------------|
B|----------------------7777----------|
G|-444--------------444/7777----------|
D|-444-555-444-2222-444/7777-777-5-5--|
A|-222-555-444-2222-222/5555-777-5050-|
E|-----333-222-0000----------555-3030-|


Chorus
E|------------------|
B|-----888-----7777-|
G|-----888-----7777-|
D|-666-888-999-7777-|
A|-666-666-999-5555-|
E|-444-----777------|
[ Tab from: http://www.guitartabs.cc/tabs/n/nirvana/in_his_room_tab_ver_2.html ]
End of chorus
E|-------------------|
B|-------------------|
G|-------------------|
D|-66666666-44444444-|
A|-66666666-44444444-|
E|-44444444-22222222-|

Bridge
E|--------------| x2
B|--------------|
G|--4-----------|
D|--4--5--4--22-|
A|-2------4--22-|
E|----3--2--0-0-|

E|---------------------| x2
B|-4444----------------|
G|-4444----------------|
D|-4444-5555-4444-2222-|
A|-2222-5555-4444-2222-|
E|------3333-2222-0000-|

See the stab wounds in his hands.
Comments