Nirvana - In His Hands Chords & Tabs

 

In His Hands Chords & Tabs

Nirvana Chords & Tabs

Version: 2 Type: Tab 0 ratings
1 star 2 stars 3 stars 4 stars 5 stars
comments

In His Hands Tab

   
Nirvana, In his hands.
 Tabbed by Phil Sellars philsellars@hotmail.com.
  
Nirvana- In his hands

Words/music K.Cobain

Tabbed by Phil sellars 14th July
Any comments e-mail: philsellars@hotmail.com

This in my opinion is a top song, I have 
only heard it on a live bootleg in poor 
quality so I cant really figure out the lyrics.


Intro/verse

You should be able to work out the timings, its pretty straightforward strumming!
[ Tab from: http://www.guitartabs.cc/tabs/n/nirvana/in_his_hands_tab_ver_2.html ]
  (b) (G)  (F#)  (E)  (b)  (D)  (A)  (C) 
e-2---3----2----------2----5----5----3
B-2---3----2----------2----5----5----3
G-4---4----3-----1----4----7----6----5
D 4---5----4-----2----4----7----7----5
A 2---5----4-----2----2----5----7----3
E 2---3----2----------2----5----5----3  
(repeat for several times)



Chorus

  (G#)  (D#)  (b)  (D)
e---4----6-----7----5
B---4----6-----7----5
G---5----8-----8----7
D---6----8-----9----7
A---6----6-----9----5
E---4----6-----7----5    
(repeat)

End of chorus

  (G#)  (F#)
e--4----2
B---4----2
G---5----3
D---6----4
A---6----4
E---4----2
 
:: Ultimate Guitar Archive :: 
http://www.ultimate-guitar.com 



Comments