Nirvana - In Bloom Chords & Tabs

 

In Bloom Chords & Tabs

Nirvana Chords & Tabs

Version: 9 Type: Tab 0 ratings
1 star 2 stars 3 stars 4 stars 5 stars
comments

In Bloom Tab

In Bloom 
Standard tuning
Might not be right but i think it sounds the closest to the real thing


E-----------------  (2x)
B-----------------
G-----------------
D--8-88-5--3-33-6-
A--8-88-5--3-33-6-
e--6-66-3--1-11-4-
[ Tab from: http://www.guitartabs.cc/tabs/n/nirvana/in_bloom_tab_ver_9.html ]
E----------------------------------   (2x)
B----------------------------------
G------------------88888-----------
D--88888-x-44444-x-88888-9999\7777-
A--88888-x-44444-x-66666-9999\7777-
e--66666-x-22222-x-66666-7777\5555-

E----------------------------------------------- (2x)
B-----------------------------------------------
G-----------------------------------------------
D---------------------1-1-1-1-1-----------------
A--1-1-1-1-1--------------------2-2-2-2-0-0-0-0-
e------------2-2-2-2-2--------------------------


Well thats all I know sofar. E-mail me if u have the rest.
Comments