Nirvana - In Bloom Chords & Tabs

 

In Bloom Chords & Tabs

Nirvana Chords & Tabs

Version: 5 Type: Tab 6 ratings
1 star 2 stars 3 stars 4 stars 5 stars
comments

In Bloom Tab

^=bend
~=vibrato
/=slide


      INTRO 
            
e-----------------------------------|
B-----------------------------------|
G-3---3-3-3-------------------------|  x2
D-3---3-3-3--5-----3---3-3-3--6-----|
A-1---1-1-1--5-----3---3-3-3--6-----|
E------------3-----1---1-1-1--4-----|


e--------------------------------------------------|
B--------------------------------------------------|
G-3-3-3-3-3-------------8-8-8-8-8------------------|
D-3-3-3-3-3--4-4-4-4-4--8-8-8-8-8--9-9-9-9/7-7-7-7-| x2
A-1-1-1-1-1--4-4-4-4-4--6-6-6-6-6--9-9-9-9/7-7-7-7-|
E------------2-2-2-2-2-------------7-7-7-7/5-5-5-5-|

      VERSE  

e--------------------------------------------------|
B--------------------------------------------------|
G-3-3-3-3-3-------------8-8-8-8-8------------------|
D-3-3-3-3-3--4-4-4-4-4--8-8-8-8-8--9-9-9-9/7-7-7-7-| x2
A-1-1-1-1-1--4-4-4-4-4--6-6-6-6-6--9-9-9-9/7-7-7-7-|
E------------2-2-2-2-2-------------7-7-7-7/5-5-5-5-|
 
      CHORUS 

e--------------------------|
B--------------------------|
G--------------------------|
D------8-8-8-8-8/5-5-5-5-5-| x4
A------8-8-8-8-8/5-5-5-5-5-|
E------6-6-6-6-6/3-3-3-3-3-|
ahhh__ he`s the...

e--------------------------|
B--------------------------|
G--------------------------|
D------5-5-5-5-5/8-8-8-8-8-| x2
A------5-5-5-5-5/8-8-8-8-8-|
E------3-3-3-3-3/6-6-6-6-6-|


e-----------------------------------|
B-----------------------------------|
G-3---3-3-3-------------------------|  x2
D-3---3-3-3--5-----3---3-3-3--6-----|
A-1---1-1-1--5-----3---3-3-3--6-----|
E------------3-----1---1-1-1--4-----|


      VERSE  

e--------------------------------------------------|
B--------------------------------------------------|
G-3-3-3-3-3-------------8-8-8-8-8------------------|
D-3-3-3-3-3--4-4-4-4-4--8-8-8-8-8--9-9-9-9/7-7-7-7-| x2
A-1-1-1-1-1--4-4-4-4-4--6-6-6-6-6--9-9-9-9/7-7-7-7-|
E------------2-2-2-2-2-------------7-7-7-7/5-5-5-5-|
  



      CHORUS 

e--------------------------|
B--------------------------|
G--------------------------|
D------8-8-8-8-8/5-5-5-5-5-| x4
A------8-8-8-8-8/5-5-5-5-5-|
E------6-6-6-6-6/3-3-3-3-3-|

[ Tab from: http://www.guitartabs.cc/tabs/n/nirvana/in_bloom_tab_ver_5.html ]
e--------------------------|
B--------------------------|
G--------------------------|
D------5-5-5-5-5/8-8-8-8-8-| x2
A------5-5-5-5-5/8-8-8-8-8-|
E------3-3-3-3-3/6-6-6-6-6-|
      

e-----------------------------------|
B-----------------------------------|
G-3---3-3-3-------------------------|  x2
D-3---3-3-3--5-----3---3-3-3--6-----|
A-1---1-1-1--5-----3---3-3-3--6-----|
E------------3-----1---1-1-1--4-----|



      SOLO 

e--------------------------------------------------------------------
B--------------------------------------------------------------------
G-8^----8^----6^-----6--6-8-6-8^----8-----6-8-8^-----8~~~~~6--8---6--
D-------------------------------------6-8----------------------------
A--------------------------------------------------------------------
E--------------------------------------------------------------------

e--------------------------------------------------------------------
B-----------------------------8----8-9-8-9^-----9-11-11^----11^---11-
G-8-8^-6---8-8-----10^----10----10-----------------------------------
D--------------0-----------------------------------------------------
A--------------------------------------------------------------------
E--------------------------------------------------------------------

e--------------------------------------|
B-11/---------8----8---8--7--6---------|
G------6----6--------6----------3----6-|
D-------------------------------3----6-|
A-------------------------------1----4-|
E--------------------------------------|
                                

      CHORUS 

e--------------------------|
B--------------------------|
G--------------------------|
D------8-8-8-8-8/5-5-5-5-5-| x4
A------8-8-8-8-8/5-5-5-5-5-|
E------6-6-6-6-6/3-3-3-3-3-|
       

e--------------------------|
B--------------------------|
G--------------------------|
D------5-5-5-5-5/8-8-8-8-8-| x2
A------5-5-5-5-5/8-8-8-8-8-|
E------3-3-3-3-3/6-6-6-6-6-|


e-----------------------------------|
B-----------------------------------|
G-3---3-3-3-------------------------|  x2
D-3---3-3-3--5-----3---3-3-3--6-----|
A-1---1-1-1--5-----3---3-3-3--6-----|
E------------3-----1---1-1-1--4-----|
Comments