Nirvana - In Bloom Chords & Tabs

 

In Bloom Chords & Tabs

Nirvana Chords & Tabs

Version: 3 Type: Tab 0 ratings
1 star 2 stars 3 stars 4 stars 5 stars
comments

In Bloom Tab

   
This is a very easy song to play. This is my very first tab.
s- slide
x- left hand mute (right hand for lefties)
b- bend 
r- release bend
v- vibrate 

Intro - first time through
E-------------------------------------------------------
B-------------------------------------------------------
G---3---3-3-0-------------------------------------------
D---3---3-3-0-5---5-5-5-5-5-5-5---3---3-3-0-6---6-6-6-6-
A---1---1-1-0-5---5-5-5-5-5-5-5---3---3-3-0-6---6-6-6-6-
E-------------3---3-3-3-3-3-3-3---1---1-1-0-4---4-4-4-4-


Second time through
E---------------------------------------------
B---------------------------------------------
G---3---3-3-0---------------------------------
D---3---3-3-0-5---5-5-5-5-5-5-5---3---3-3-0-6-
A---1---1-1-0-5---5-5-5-5-5-5-5---3---3-3-0-6-
E-------------3---3-3-3-3-3-3-3---1---1-1-0-4-


Pre Verse – X2
E--------------------------------------------------------------
B--------------------------------------------------------------
G---3-3-3-3-3-x-3---------------s8-8-8-8-8-x-x-4-4-4-4-2-2-2-2-
D---3-3-3-3-3-x-3-4-4-4-4-4-x-4—s8-8-8-8-8-x-x-4-4-4-4-2-2-2-2-
A---1-1-1-1-1-x-1-4-4-4-4-4-x-4—s6-6-6-6-6-x-x-2-2-2-2-0-0-0-0-
E-------------x---2-2-2-2-2-x-2------------x-x-----------------


Verse – no guitar all bass and drums


Pre Verse – X2


Chorus – X2
E------------------------------------------
B------------------------------------------
G------------------------------------------
D---8--8-8-8-8-8-8--5-5-5-5-5-5-5-5--------
A---8--8-8-8-8-8-8--5-5-5-5-5-5-5-5--------
E---6--6-6-6-6-6-6--3-3-3-3-3-3-3-3--------

Play this X4 then play this X2:

E-----------------------------
B-----------------------------
G---5-5-5-5-5-8-8-8-8-8-8-8-8-
D---5-5-5-5-5-8-8-8-8-8-8-8-8-
A---3-3—3-3-3-6-6-6-6-6-6-6-6-
E-----------------------------


Intro
E-------------------------------------------------------
B-------------------------------------------------------
G---3---3-3-0-------------------------------------------
D---3---3-3-0-5---5-5-5-5-5-5-5---3---3-3-0-6---6-6-6-6-
A---1---1-1-0-5---5-5-5-5-5-5-5---3---3-3-0-6---6-6-6-6-
E-------------3---3-3-3-3-3-3-3---1---1-1-0-4---4-4-4-4-

E---------------------------------------------------------
B---------------------------------------------------------
G---3---3-3-0---------------------------------------------
D---3---3-3-0-5---5-5-5-5-5-5-5---3---3-3-0-6-6-6-6-6-6-6-
A---1---1-1-0-5---5-5-5-5-5-5-5---3---3-3-0-6-6-6-6-6-6-6-
E-------------3---3-3-3-3-3-3-3---1---1-1-0-4-4-4-4-4-4-4-


Verse


Chorus
E------------------------------------------
B------------------------------------------
G------------------------------------------
D---8--8-8-8-8-8-8--5-5-5-5-5-5-5-5--------
A---8--8-8-8-8-8-8--5-5-5-5-5-5-5-5--------
E---6--6-6-6-6-6-6--3-3-3-3-3-3-3-3--------

Play this X4 then play this X2:
[ Tab from: http://www.guitartabs.cc/tabs/n/nirvana/in_bloom_tab_ver_3.html ]
E-----------------------------
B-----------------------------
G---5-5-5-5-5-8-8-8-8-8-8-8-8-
D---5-5-5-5-5-8-8-8-8-8-8-8-8-
A---3-3—3-3-3-6-6-6-6-6-6-6-6-
E-----------------------------


Intro
E-------------------------------------------------------
B-------------------------------------------------------
G---3---3-3-0-------------------------------------------
D---3---3-3-0-5---5-5-5-5-5-5-5---3---3-3-0-6---6-6-6-6-
A---1---1-1-0-5---5-5-5-5-5-5-5---3---3-3-0-6---6-6-6-6-
E-------------3---3-3-3-3-3-3-3---1---1-1-0-4---4-4-4-4-

E---------------------------------------------
B---------------------------------------------
G---3---3-3-0---------------------------------
D---3---3-3-0-5---5-5-5-5-5-5-5---3---3-3-0-6-
A---1---1-1-0-5---5-5-5-5-5-5-5---3---3-3-0-6-
E-------------3---3-3-3-3-3-3-3---1---1-1-0-4-


Solo - Distortion
E---b11-11-11-11-11r—b9-9r---------------------------------------------
B----------------------------------------------------------------------
G--------------------------6—-6-8-6-b8-----6-8-b8-8-6-8—6-8-b8r—6-8-8--
D--------------------------------------6h8----------------------------0
A----------------------------------------------------------------------
E----------------------------------------------------------------------

E---b13-------------------------------------11-------3—--3—-3s2s1-1-
B----------------------------11—9-11-b11v---b11—2-2-2---2-2-2s1s0-0-
G-------10-12-10-12s13—12-13----------------------------------------
D-------------------------------------------------------------------
A-------------------------------------------------------------------
E-------------------------------------------------------------------


Chorus X2
E------------------------------------------
B------------------------------------------
G------------------------------------------
D---8--8-8-8-8-8-8--5-5-5-5-5-5-5-5--------
A---8--8-8-8-8-8-8--5-5-5-5-5-5-5-5--------
E---6--6-6-6-6-6-6--3-3-3-3-3-3-3-3--------

Play this X4 then play this X2:

E-----------------------------
B-----------------------------
G---5-5-5-5-5-8-8-8-8-8-8-8-8-
D---5-5-5-5-5-8-8-8-8-8-8-8-8-
A---3-3—3-3-3-6-6-6-6-6-6-6-6-
E-----------------------------


Second Part of Chorus - X2
E-----------------------------
B-----------------------------
G---5-5-5-5-5-8-8-8-8-8-8-8-8-
D---5-5-5-5-5-8-8-8-8-8-8-8-8-
A---3-3—3-3-3-6-6-6-6-6-6-6-6-
E-----------------------------

Intro X2
E---------------------------------------------
B---------------------------------------------
G---3---3-3-0---------------------------------
D---3---3-3-0-5---5-5-5-5-5-5-5---3---3-3-0-6-
A---1---1-1-0-5---5-5-5-5-5-5-5---3---3-3-0-6-
E-------------3---3-3-3-3-3-3-3---1---1-1-0-4-

Intro with only 1st time through – X2 
E-------------------------------------------------------
B-------------------------------------------------------
G---3---3-3-0-------------------------------------------
D---3---3-3-0-5---5-5-5-5-5-5-5---3---3-3-0-6---6-6-6-6-
A---1---1-1-0-5---5-5-5-5-5-5-5---3---3-3-0-6---6-6-6-6-
E-------------3---3-3-3-3-3-3-3---1---1-1-0-4---4-4-4-4-

E-----
B-----
G---3-
D---3-
A---1-
E-----
Comments