Nirvana - In Bloom Chords & Tabs

 

In Bloom Chords & Tabs

Nirvana Chords & Tabs

Version: 14 Type: Tab 0 ratings
1 star 2 stars 3 stars 4 stars 5 stars
comments

In Bloom Tab

   
h= hammer-on
p= pull off
b= bend
\= slide up neck (make note lower)

standard tuning
with wah, echo, and distortion

e--------------------------------------------------------------------------
b--------------------------------------------------------------------------
g-------6-6h8-6-8-9-8---------6-8-9b10-8-6-8b8-6-8-8-6-9b11----------------
d----------------------7-8-------------------------------------------------
a--------------------------------------------------------------------------
e--------------------------------------------------------------------------

[ Tab from: http://www.guitartabs.cc/tabs/n/nirvana/in_bloom_tab_ver_14.html ]
e--------------------------------------------------------------------------
b-------6-8p6-6-8h9-8-9-11-9-11-12-13b15-14\-----8---8---------------------
g--------------------------------------------6-6---6-----------------------
d--------------------------------------------------------------------------
a--------------------------------------------------------------------------
e--------------------------------------------------------------------------


That about does it.  Its a really easy solo to play, and sounds pretty good
if played right. 
Email me if you have any questions.  captain_kalbasa@hotmail.com
Comments