Nirvana - In Bloom Solo Chords & Tabs

 

In Bloom Solo Chords & Tabs

Nirvana Chords & Tabs

Version: 1 Type: Tab 4 ratings
1 star 2 stars 3 stars 4 stars 5 stars
comments

In Bloom Solo Tab

"In Bloom" solo
Artist: Nirvana
This is legit since I own the tab book 
and have played it many a time. But feel free to improvise.
Legend:
^ bend
\ slide
/\/\/\/\ tremolo


    full  full  full            full           full /\/\/\/\/
e|--------------------------------------------------------------------
B|--------------------------------------------------------------------
G|8^----8^----6^-----6--6-8-6-8^----8----6-8-8^-----8--------6--8---6-
D|------------------------------------6-8-----------------------------
A|--------------------------------------------------------------------
E|--------------------------------------------------------------------
[ Tab from: http://www.guitartabs.cc/tabs/n/nirvana/in_bloom_solo_tab.html ]
      full           full                  full        full   full
e|--------------------------------------------------------------------
B|----------------------------8----8-9-8-9^----9-11-11^----11^------11
G|8-8^-6--8-8-----10^----10-----10------------------------------------
D|------------0-------------------------------------------------------                                                                                                                                                                                                                                                                                                                                                                                                                                                                                                                                                                                                                                                                                                                                                                                                                                                                                                                                                                                        D|------------0-------------------------------------------------------                                                                                                                                                                                                                                                                                                                                                                                                                                                                                                                                                                                                                                                                                                               
A|--------------------------------------------------------------------
E|--------------------------------------------------------------------


e|----------------------------------------|
B|---11\----------8----8---8--7--6--------|
G|---------6----6--------6----------3----6|
D|----------------------------------3----6|
A|----------------------------------1----4|
E|----------------------------------------|

That's it.
Comments