Nirvana - In Bloom Chords & Tabs

 

In Bloom Chords & Tabs

Nirvana Chords & Tabs

Version: 8 Type: Bass Tab 0 ratings
1 star 2 stars 3 stars 4 stars 5 stars
comments

In Bloom Bass Tab

iNTRO
G(----------------------------------------------------------------------------)
D(----------------------------------------------------------------------------)
A(--1--1-1--------------------------------------------------------------------)
E(---------3--3-3--1--1-1---4-4--4--------------------------------------------)

vERSE
G(----------------------------------------------------------------------------)
D(----------------------------1-1-1-1-1---------------------------------------)
A(--1-1-1-1-1----------------------------2--2-2-----0-0-----------------------)
E(--------------2-2-2-2-2-----------------------------------------------------)
[ Tab from: http://www.guitartabs.cc/tabs/n/nirvana/in_bloom_btab_ver_8.html ]
cHORUS (When they start singing "He's the one, who likes...")
G(----------------------------------------------------------------------------)
D(-----------------------------------------------------------------1-1-1-1----)
A(--1--1-1---------1--1-1---------1--1-1---------3-3-3-3----------------------)
E(-----------3--3-3---------3--3-3---------3--3-3-----------------------------)

oRDER oF sONG:
iNTRO (2x)
vERSE (6x)
cHORUS (1x)
iNTRO (2x)
vERSE (6x)
cHORUS (2x)
vERSE (6x)
cHORUS (4x)

 tHIS MAY SEEM SLIGHTLY CONFUSING, BUT IT WOULD HELP IF YOU LISTEN TO THE SONG.
jUST DO THE SONG IN THE ORDER ABOVE AND I'M SURE YOU'LL BE JUST FINE. eMAIL ME IF
YOU HAVE ANY QUESTIONS AT...        thegreentoe@netscape.net
Comments