Nirvana - In Bloom Chords & Tabs

 

In Bloom Chords & Tabs

Nirvana Chords & Tabs

Version: 7 Type: Bass Tab 0 ratings
1 star 2 stars 3 stars 4 stars 5 stars
comments

In Bloom Bass Tab

artist:nirvana
song:in bloom
bassist:Krist Novoselic
tuning:standard

  its kinda easier to play this song 
  with fingers but a pick would work to

intro\chorus\outro
---------------
---------------
--1------------
----3--1---4---
[ Tab from: http://www.guitartabs.cc/tabs/n/nirvana/in_bloom_btab_ver_7.html ]
verse\solo
----------------------------------------
----------------------------------------
----------2-22222---------22-22--0-00---
--2-22222---------2-22222---------------

order:
intro
verse
chorus
verse
chorus
solo (play verse)
chorus
outro            thats it its an easy song so good luck!
Comments